Song name
# A B C D E F G H I J K L M N O P Q R S T U V W X Y Z

Misc Unsigned Bands - Chemical Warfare - Its Must Be Hard tab

Chemical Warfare
It must be hard

    This a cool song of my bands and you guys should check it out thanx

Intro/Riff
-----------------------------------------------|
-----------------------------------------------|
-----7---6----7---6-----7----6----7/9----6/7---| X4
---------------------55---55---77-----77-------|
-55---55---55---55-----------------------------|
-----------------------------------------------|

After second time this guitar comes in

--------------------------------------------|
--------------------------------------------|
--7777777777777777--------------------------| X2
--7777777777777777-55555555--77777777-------|
--5555555555555555-55555555--77777777-------|
-------------------33333333--55555555-------|

Verse

------------------------------------------------------|
------------------------------------------------------|
-----7-----7-----7-----7------------------------------|X2
-----x-----x-----x-----x-----5----5-----7----7--------|
--55-5--55-5--55-5--55-5-----x----x-----x----x--------|
--------------------------33-3-33-3--55-5-55-5--------|


------------------------------------------------------|
------------------------------------------------------|
-----7-----7-----7-----7-------11----11----9----9-----|
-----x-----x-----x-----x-------x-----x-----x----x-----|X2
--55-5--55-5--55-5--55-5----99-9--99-9--77-7-77-7-----|
------------------------------------------------------|

Instead of playin The E note the second time play this

----------------|
----------------|
----------------|
---7777-7777----|
---7777-7777----|
---5555-5555----|

Chorus

-------------------------------------------------|
-------------------------------------------------|
--77777777--99999999-----------------------------|X2
--77777777--99999999--55555555--77777777---------|
--55555555--77777777--55555555--77777777---------|
----------------------33333333--55555555---------|

On second time end on this

----------------|
----------------|
----------------|
---7777-7777----|
---7777-7777----|
---5555-5555----|

Riff 2x(with guitar other guitar)
Verse
Chorus
Bridge

On the 3rd time strum the notes in stead of playin one at a time
---------------------------------------------------------------|
---------------------------------------------------------------|
--7--7--7--7--6--6--6--6--4--4--4--4--11--11--9--9-------------|X4
--x--x--x--x--x--x--x--x--x--x--x--x--x---x---x--x-------------|
--5--5--5--5--4--4--4--4--2--2--2--2--9---9---7--7-------------|
---------------------------------------------------------------|


----------------|
----------------|
----------------|
---7777-7777----|
---7777-7777----|
---5555-5555----|

Chorus X4
Riff X2

Hey I hope you guys like it its my first tab so Yea, Enjoy
                                     - Guitarplaya4cw
Tap to rate this tab
# A B C D E F G H I J K L M N O P Q R S T U V W X Y Z