Song name
# A B C D E F G H I J K L M N O P Q R S T U V W X Y Z

Misc Unsigned Bands - Point Of Impact - Flying tab

Help us improve GuitareTab! Take a short survey!
hey guys...
this is a great song from a local band in s.d.
if u have any questions e-mail me at isiahsalazar12321@yahoo.com
or if you have aim get at me
someloser42

Intro--(pick the strings--do not strum) Clean/distorted with flanger&reverb
e---------------------------------------------------------------------------|
b---------------------------------------------------------------------------|
g---------------------------------------------------------------------------|
D----14---9---11---7--------------------------------------------------------|
A---14---9---11---7---------------------------------------------------------|
E--12---7---9----5----------------------------------------------------------|


End the intro with this riff
e-------------------------------------------------------------------------|
b-------------------------------------------------------------------------|
g-------------------------------------------------------------------------|
D------14---7~~-2~~-------------------------------------------------------|
A----14----7~~--2~~-------------------------------------------------------|
E--12-----5~~---0~~-------------------------------------------------------|

This Is the Chorus--strum--(distorted)
e-------------------------------------------------------------------|
b-------------------------------------------------------------------|
g-------------------------------------------------------------------|
D--14-14-14-14--7-7-7-7--11-11-11-11--9-9-9-9--7-7-7-7~~------------|
A--14-14-14-14--7-7-7-7--11-11-11-11--9-9-9-9--7-7-7-7~~------------|
E--12-12-12-12--5-5-5-5--9--9--9--9---7-7-7-7--5-5-5-5~~------------|

Breakdown/Bridge (play slow & clean)
e-------------------------------------------------------------|
b-------------------------------------------------------------|
g-------------------------------------------------------------|
D-2~~~-----4~----2~----6~~~4(bend 4 until solo starts)--------|
A-2~~~----2~----2~----2~--------------------------------------|
E-0~~~---0~----0~----0~---------------------------------------|

Solo repeat 2x's (clean with little distortion/flanger)
e-------------------------------------------------------|
b-------------------------------------------------------|
g-------------------------------------------------------|
D--4~-2~-1~-2~^--2-4-6~~4-2-1~-1-2---4-4-2-2-6----------|-(let it ring out)
A----------------------------------2--------------------|
E-------------------------------------------------------|

Breakout--LOUD--DISTORTED Repeat 3x's
e---------------------------------------------------|
b---------------------------------------------------|
g--------------6-6-6-6---4--2-2-2-2---4-4-4---------|
D-2-2-2-2-2-2--6-6-6-6---4--2-2-2-2---4-4-4---------|
A-2-2-2-2-2-2--4-4-4-4---2--0-0-0-0---2-2-2---------|
E-0-0-0-0-0-0---------------------------------------|

Repeat Intro once..
e-----------------------------------------------|
b-----------------------------------------------|
g-----------------------------------------------|
D----14---9---11---7----------------------------|
A---14---9---11---7-----------------------------|
E--12---7---9----5------------------------------|

Ends On
D-2~~~
A-2~~~
E-0~~~
Related for Point Of Impact - Flying tab