Song name
# A B C D E F G H I J K L M N O P Q R S T U V W X Y Z

Misc Unsigned Bands - A Rainy Tuesday - Anti-emo Anthem tab

Tabbed by: Tyler McGumphries

Tuning: Standard

Intro
e|-----------------------------------------------------------------------------|
B|-----------------------------------------------------------------------------|
G|-----------------------------------------------------------------------------|
D|-----7-------7---------------------------------------------------------------|
A|-5-5---5-5-5--5-----7----7--7-----9--------9-------5-----5---5---------------|
E|-----------------5-5--5-5--5---7-7---7-7-7---7--3-3--3-3---3-----------------|

1st&2nd Verse
e|-----------------------------------------------------------------------------|
B|-----------------------------------------------------------------------------|
G|-----------------------------------------------------------------------------|
D|-7-7-7-7-7-7-7---------------------------------------------------------------|
A|-5-5-5-5-5-5-5-7-7-7-7-7-7-7-9-9-9-9-9-9-9-5-5-5-5-5-5-5---------------------|
E|----------------5-5-5-5-5-5-5-7-7-7-7-7-7-7-3-3-3-3-3-3-3--------------------|

Chorus
e|-------------------------------------------------------------------------------|
B|-------------------------------------------------------------------------------|
G|-7-7-7-7-----------------------------------------------------------------------|
D|-7-7-7-7---7-7-7-7---9-9-9-9--5-5-5-5------------------------------------------|
A|-5-5-5-5---7-7-7-7---9-9-9-9--5-5-5-5------------------------------------------|
E|------------5-5-5-5---7-7-7-7--3-3-3-3-----------------------------------------|

End

e|---------------------------------------------------------------------------|
B|---------------------------------------------------------------------------|
G|---------------------------------------------------------------------------|
D|--5--7---------------------------------------------------------------------|
A|--5--7---------------------------------------------------------------------|
E|--3--5---------------------------------------------------------------------|
Tap to rate this tab
# A B C D E F G H I J K L M N O P Q R S T U V W X Y Z