Song name
# A B C D E F G H I J K L M N O P Q R S T U V W X Y Z

Misc Unsigned Bands - Rubidium - Horsemen Of The Apocalypse tab

www.rubidium.tk

tempo fast/ gtr 1-intro
|--------------------------------------------------------------------------|
|--------------------------------------------------------------------------|
|--------------------------------------------------------------------2b(3)-|
|--------------------7----5----3-----2~-----2---3---5---3---2---3-0--------|
|-----10---8---7--5----5----5-----5-----3-3---3---3---3---3---3------------|
|-0-0----0---0-------------------------------------------------------------|
 gtr 2
|--------------------------------------------------------------------------|
|--------------------------------------------------------------------------|
|--------------------------------------------------------------------2b(3)-|
|-------------------------------------------6---7---9---7---6--------------|
|-----14--12---11----11----9---7-----6~------------------------------------|
|-0-0----0---0-------------------------------------------------------------|

gtr 1-verse
|--------------------------------------------------------------------------|
|--------------------------------------------------------------------------|
|--------------------------------------------------------------------2b(3)-|
|--------------------7----5----3-----2~-----2---3---5---3---2---3-0--------|
|-----10---8---7--5----5----5-----5-----3-3---3---3---3---3---3------------|
|-0-0----0---0-------------------------------------------------------------|
gtr 2
|--------------------------------------------------------------------------|
|--------------------------------------------------------------------------|
|----------------------------------------------------------2-2-2-2-2-2-2-2-|
|--------------------5-5-5-5-5-5-5-5-----3-3-3-3-3-3-3-3---2-2-2-2-2-2-2-2-|
|--0-0-0-0-0-0-0-0---5-5-5-5-5-5-5-5-----3-3-3-3-3-3-3-3-------------------|
|--0-0-0-0-0-0-0-0---------------------------------------------------------|

gtr 1-chorus
|--------------------------------------------------------------------------|
|--------------------------------------------------------------------------|
|--9-9-9-9-9-9-9-9--5-5-5-7-7-7--------------------------------------------|
|--9-9-9-9-9-9-9-9--5-5-5-7-7-7--5-5-5-6-6-6--8-8-8-3-3-3------------------|
|--7-7-7-7-7-7-7-7--3-3-3-5-5-5--5-5-5-6-6-6--8-8-8-3-3-3------------------|
|--------------------------------5-5-5-6-6-6--8-8-8-3-3-3------------------|
gtr 2
|--------------------------------------------------------------------------|
|--------------------------------------------------------------------------|
|--9-9-9-9-9-9-9-9--5-5-5-7-7-7--------------------------------------------|
|--9-9-9-9-9-9-9-9--5-5-5-7-7-7--5-5-5-6-6-6--8-8-8-3-3-3------------------|
|--7-7-7-7-7-7-7-7--3-3-3-5-5-5--5-5-5-6-6-6--8-8-8-3-3-3------------------|
|--------------------------------5-5-5-6-6-6--8-8-8-3-3-3------------------|

gtr 1-breakdown
|---------|----------------------------------------------------------------|
|---------|----------------------------------------------------------------|
|---------|----------------------------------------------------------------|
|--0---0--|--------------------------------7--5--------5--3--2~------------|
|--0---0--|----3--5--7--8--10--12--8b(9)---------7--5----------------------|
|--0---0--|-0-0--0--0--0--0---0---0-----0-0--0--0--0--0--0--0--------------|
gtr 2
|---------|----------------------------------------------------------------|
|---------|----------------------------------------------------------------|
|---------|----------------------------------------------------------------|
|--0---0--|----------------------------------------------------------------|
|--0---0--|--0--0--0--0--0--0--0--0--0--0--0--0--0--0--0--0----------------|
|--0---0--|--0--0--0--0--0--0--0--0--0--0--0--0--0--0--0--0----------------|
PM          |-----------------------------------------------|
gtr 1
|--------------------------------------------------------------------------|
|--------------------------------------------------------------------------|
|--------------------------------------------------10b(12)-----------------|
|-----------3--5--5--7---8-----------5--7--7---8---------------------------|
|----3--5----------------------5--7----------------------------------------|
|-0-0--0--0---0--0--0--0---0-0---0--0--0--0--0---0-------------------------|
gtr 2
|--------------------------------------------------------------------------|
|--------------------------------------------------------------------------|
|--------------------------------------------------------------------------|
|--------------------------------------------------------------------------|
|---8--8--8--8--8--8--8--8--8--8--8--8--8--8--8--8-------------------------|
|---8--8--8--8--8--8--8--8--8--8--8--8--8--8--8--8-------------------------|
PM |-----------------------------------------------|

order:
introx4
versex4
chorusx2
versex4
chorusx2
breakdownx2

i'll write the solo in a bit;)

Tap to rate this tab
# A B C D E F G H I J K L M N O P Q R S T U V W X Y Z