Song name
# A B C D E F G H I J K L M N O P Q R S T U V W X Y Z

Misc Unsigned Bands - Half Awake - For Honor tab

FOR HONOR
INTRO/VERSE - fast acoustic
|-------------------------------------------------|
|-1-----1-----1-----1-----0-----0-----0-----0-----|
|---2-----2-----2-----2-----2-----2-----2-----2---|
|-----2-----2-----2-----2-----2-----2-----2-----2-|
|-------------------------------------------------|
|-------------------------------------------------|
                                            1st   2nd
|----------------------------------------|-----|-0---|
|-0-----0-----0----0-----3~--5-5p4p3p0-3-|-0-1~|---1~|
|---1-----1-----1----1-------------------|-----|-----|  repeat 6x
|-----2-----2----2-----2-----------------|-----|-----|
|----------------------------------------|-----|-----|
|----------------------------------------|-----|-----|

RIFF A - electric really fast
|------------------------------------------------------------|
|------------------------------------------------------------|
|------------------------------------------------------------| x 2
|------------------------------------------------------------|
|------------------------5--3-------------------------7-9-10-|
|-0-0-3-0-5-0-7--0-0-3-0-5--3--0-0-3-0-5-0-7--0-0-3-0-7-9-10-|

RIFF B
|--------------------------------------------------------|
|--------------------------------------------------------|
|--------------------------------------------------------| x 2
|-2-2------------------------2-2-------------------------|
|-2-2------------------------2-2-------------------------|
|-0-0-3-5-3-8-7-5-10-9-7-12/-0-0-12-7-10-9-5-8-7-3-5-3-0-|

RIFF C
|--------------------------------------|
|--------------------------------------|
|--------------------------------------| x 2
|-2-2~--2-2-3x---2-2-2-2-2-3-2-5-3-7sd-|
|-2-2~--2-2-3x---2-2-2-2-2-3-2-5-3-7sd-|
|-0-0~--0-0-3x---0-0-0-0-0-3-0-5-3-7sd-|

|---------------------------------------|     |-------------|
|---------------------------------------|     |-------------|
|---------------------------------------| x 2 |-------------|
|-2-2-2-3x---2-2-2-5x---2-2-2-3-2-5-3-7-|     |-5-9-7-10/12-|
|-2-2-2-3x---2-2-2-5x---2-2-2-3-2-5-3-7-|     |-5-9-7-10/12-|
|-0-0-0-3x---0-0-0-5x---0-0-0-3-0-5-3-7-|     |-5-9-7-10/12-|

RIFF D (chorus 1) - slower but still really heavy
|--------------------------------------------|
|--------------------------------------------|
|--------------------------------------------| x 6
|-2-2x---3-2-5-3-3x---7-5-3-2-2x---3-2-5-5/7-|
|-2-2x---3-2-5-3-3x---7-5-3-2-2x---3-2-5-5/7-|
|-0-0x---3-0-5-3-3x---7-5-3-0-0x---3-0-5-5/7-|

RIFF E (chorus 2) - fast again
|-----------------------------|
|-----------------------------|
|-----------------------------| x 2
|-9-9-7-x-9-9-5-x-7-7-2-2-2/3-|
|-9-9-7-x-9-9-5-x-7-7-2-2-2/3-|
|-9-9-7-x-9-9-5-x-7-7-2-2-2/3-|

|---------------------------|
|---------------------------|
|---------------------------|
|---------------------------|
|-9-9-7-7-9sd---7-7-5-5-7sd-|
|-9-9-7-7-9sd---7-7-5-5-7sd-|

|-------------------------------------------------|
|-------------------------------------------------|
|-------------------------------------------------|
|-------------------------------5-9-7-5-7-5-3-2-2-|
|-2-2-2-2-2-2/3-3-3-3-3-3-3/5---5-9-7-5-7-5-3-2-2-|
|-2-2-2-2-2-2/3-3-3-3-3-3-3/5---5-9-7-5-7-5-3-0-0-|

SOLO
|-----/12-12-12-9h10p9-7sd-----------------------------|
|------------------------------------------------------|
|------------------------------------7----------12-----|
|-2-2----------------------5-5-7h8h9---9-7-9/12----7-7-|
|-2-2----------------------5-5---------------------7-7-|
|-0-0----------------------3-3---------------------5-5-|

|-15p14p13-15p14p13-15p14p13-15/17-----|
|--------------------------------------|
|--------------------------------------|
|----------------------------------2-2~|
|----------------------------------2-2~|
|----------------------------------0-0~|

|-------------------16-15-18bd-18-15-16-15h16p15-18-15-16-15----15----|
|----------15h16p15------------------------------------------17----17-|
|-13h15/16------------------------------------------------------------|
|---------------------------------------------------------------------|
|---------------------------------------------------------------------|
|---------------------------------------------------------------------|

|----------------------13h15p13----13----------------------------------|
|-15----16-13~13h15/16----------15----15-13----------------11----------|
|----16-------------------------------------15-13-11h12h13----13-11----|
|-------------------------------------------------------------------13-|
|----------------------------------------------------------------------|
|----------------------------------------------------------------------|

|-------------------11-11-11-11-11-11p9p0----------------------11p9p0-|
|----------------11-----------------------11p9p0--------11p9p0--------|
|-------11h12h13---------------------------------11p9p0---------------|
|-11h13---------------------------------------------------------------|
|---------------------------------------------------------------------|
|---------------------------------------------------------------------|

|-11/15-15-15-15-15-15-15-15p14p13----13-|
|----------------------------------15----|
|----------------------------------------|
|----------------------------------------|
|----------------------------------------|
|----------------------------------------|

|-15p14p13-15p14p13-15p14p13----13-|
|----------------------------15----|
|----------------------------------| x 3 
|----------------------------------|
|----------------------------------|
|----------------------------------|

|-15/17-15-15p14p13----13-11-9-11/12-12-12-9h10p9-7-------------------|
|-------------------15------------------------------7h9p7-------------|
|---------------------------------------------------------7-7-7-7-7/9~|
|---------------------------------------------------------------------|
|---------------------------------------------------------------------|
|---------------------------------------------------------------------|

|------------------------------------------15-|
|---------------------------------------15----|
|-------7----------12-12-12-12-12-15/17-------|
|-7h8h9---9-7-9/12----------------------------|
|---------------------------------------------|
|---------------------------------------------|

|-17-16-15-19-17-15-16-18-19/21-|
|-------------------------------|
|-------------------------------|
|-------------------------------|
|-------------------------------|
|-------------------------------|
Tap to rate this tab
# A B C D E F G H I J K L M N O P Q R S T U V W X Y Z