Song name
# A B C D E F G H I J K L M N O P Q R S T U V W X Y Z

Misc Unsigned Bands - Me Versus Us - Lets Sit Back In Our Lawn Chairs And Watch You Fup tab

Help us improve GuitareTab! Take a short survey!
Lets Sit Back In Our Lawn Chairs and Watch You Fup
Me Versus Us


Intro
|----------------------------------|
|----------------------------------|                                         
|--------77777-999999-77-66--------|
|--77777-77777-999999-77-66-7------| x4
|--77777-55555-777777-55-44-7------|
|--55555--------------------5------|

Verse
|----------------------------|
|----------------------------|
|--------77777-99999-777777--|
|--77777-77777-99999-777777--|  x4
|--77777-55555-77777-555555--|
|--55555---------------------|

Prechorus
|---------------------------|
|---------------------------|
|--66666-77777--------------|
|--66666-77777-77777-99999--|  x2
|--44444-55555-77777-99999--|
|--------------55555-77777--|

[Intro] x2
[Verse] x4
[Prechorus] x2

Chorus
|---------------------------|
|---------------------------|
|--77777-99999--------------|
|--77777-99999-77777-44444--|  x4
|--55555-77777-77777-44444--|
|--------------55555-22222--|

[Intro] x2
[Verse] x4
[Prechorus] x2
[Chorus] x4

Outro (Clean)
|-----------------|
|-----------------|
|----7-9-7-6------|
|--7-7-9-7-6-9-7--|
|--7-5-7-5-4-9-7--|
|--5---------7-5--|
Related for Me Versus Us - Lets Sit Back In Our Lawn Chairs And Watch You Fup tab