Song name
# A B C D E F G H I J K L M N O P Q R S T U V W X Y Z

Misc Unsigned Bands - Icarus - Babe Im Movin On tab

Intro

----------------------3------2-2h3r2-2r0------------|
-----1-1h3r1-1r0-----0-0----3--------3r0----1-------|
----2--------2r0----0---0--2---------------0-----0--|  x2
---2---------------0------0---------------2-----0---|
--0---------------2----------------------3-----2----|
-----------------3----------------------------3-----|

1st Verse

----------------------3------2-2h3r2-2r0------------|
-----1-1h3r1-1r0-----0-0----3--------3r0----1-------|
----2--------2r0----0---0--2---------------0-----0--|  x4
---2---------------0------0---------------2-----0---|
--0---------------2----------------------3-----2----|
-----------------3----------------------------3-----|

Chorus

  repeat once, 1st then 2nd ending            1st        2nd
                                              //////////////////////
--0-      --0-      --0-      --0-     --0-     --0-    /  --3-    /
--1-      --0-      --1-      --1-     --1-     --0-    /  --0-    /
--2-  x10 --1-  x10 --2-  x10 --2-  x3 --0-  x3 --1-  x4/  --0-  x1/
--2-      --2-      --2-      --3-     --2-     --2-    /  --0-    /
--0-      --2-      --0-      --0-     --3-     --2-    /  --2-    /
----      ----      ----      ----     ----     ----    /  --3-    /


2nd Verse


Chorus

Bridge

------0-----0-3-0-0h3r0---|
-----1-----1-----------1--|
----2-----2---------------|  x2
---2-----2----------------|
--0-----0-----------------|
--------------------------|

Solo

-----------------------------------------------------------|
--12-13-12-13b15r13-12h13r12----12h13r12-------------------|
----------------------------h14---------h14-12-12b14r12-12-|
-----------------------------------------------------------|
-----------------------------------------------------------|
-----------------------------------------------------------|

----------------15b17r15-15b17r15-12-----------------------|
-12-13-13b15r13--------------------------------------------|
---------------------------------------------12---------12-|
-------------------------------------12h13h14---12h13h14---|
-----------------------------------------------------------|
-----------------------------------------------------------|

----------------------------------|
----------------------------------|
---------12---------12---------12-|
-12h13h14---12h13h14---12h13h14---|
----------------------------------|
----------------------------------|

-----------------------------------------------------------|
--12-13-12-13b15r13-12h13r12----12h13r12-------------------|
----------------------------h14---------h14-12-12b14r12-12-|
-----------------------------------------------------------|
-----------------------------------------------------------|
-----------------------------------------------------------|

----------------15b17r15-15b17r15-12-----15-17-17-15-17-17-|
-12-13-13b15r13--------------------------------------------|
-----------------------------------------------------------|
-----------------------------------------------------------|
-----------------------------------------------------------|
-----------------------------------------------------------|

-15-17-17b19r17-17b19r17-17b19r17-15-|
-------------------------------------|
-------------------------------------|
-------------------------------------|
-------------------------------------|
-------------------------------------|


Chorus


3rd Verse


Chorus  x2


The End, tabbed by Karl Steinhauser

www.purevolume.com/icarusoh
Tap to rate this tab
# A B C D E F G H I J K L M N O P Q R S T U V W X Y Z