Song name
# A B C D E F G H I J K L M N O P Q R S T U V W X Y Z

Misc Unsigned Bands - Dcstar10 - Razorblade Kisses tab

Help us improve GuitareTab! Take a short survey!
A DCstar10 instrumental! Very cool riffs, it can go on forever!
A riff goes with every chord for the verses.
_______________________________________________________________

INTRO (open and bar chords - Bm,A,G,F#)
E|------2-------2-------3-------3-| < (let ring out)
B|------3-------2-------3-------3-| < (let ring out)
G|--------------------------------|
D|--------------------------------|
A|-2-2-----0-0--------------------|
E|-----------------3-3-----2-2----|

VERSE (power chords - B,A,G,F#)
E|-------------------------------------|
B|-------------------------------------|
G|-------------------------------------|
D|-444------222------------------------|
A|-222-4-5--000-4-5-555-4-5-44444444---|
E|------------------333-----22222222---|   (x4)
                           (Build-up)

CHORUS
E|-0-0-        -3-3-        -0-0-        -3-3---3-3-3-3-|
B|-0-0-        -3-3-        -0-0-        -3-3---3-3-3-3-|
G|-0-0- |Bass| -0-0- |Bass| -0-0- |Bass| -0-0---3-3-3-3-|
D|-2-2- |Riff| -0-0- |Riff| -2-2- |Riff| -0-0---3-3-3-3-|
A|-2-2-        -2-2-        -2-2-        -2-2---0-0-0-0-|
E|-0-0-        -3-3-        -0-0-        -3-3---X-X-X-X-|
_______________________________________________________

The song switches from verse to chorus over and over 'till they (or you in this case) 
tired of playing it. Sometimes theres a solo, sometimes there's not, all up to improve. 
fun.
Related for Dcstar10 - Razorblade Kisses tab