Song name
# A B C D E F G H I J K L M N O P Q R S T U V W X Y Z

Misc Unsigned Bands - A Hopless Thought - Acoustic Chris And Neal tab

Acoutsic Chris and Neal
Guitar 1(drop d)
Guitar 2(open d)

  /= slide
  *= let note ring

Guitar 2 intro
]-0---0---0---0---0---0---0---0-----|
]--0---0---0---0---0---0---0---0----|
]---5---5---8---8---7---7---9---9---|
]-----------------------------------|x4
]-----------------------------------|
]-----------------------------------|

Guitar 1 intro (comes in after guitar 2 plays intro twice)
e]---------------------------|
B]---------------------------|
G]---------------------------|
D]-7-9-5-7-------------------|x2
A]-7-9-5-5-------------------|
D]-7-9-5-5-------------------|
   * * * *

Guitar 1 intro 2
e]-----------------------------------|
B]-----------------------------------|
G]-----------------------------------|
D]-777777-9999999-5555555-7777777----|
A]-777777-9999999-5555555-5555555----|
D]-777777-9999999-5555555-5555555----|

Guitar 2 intro 2
]-0000-00000-0000-00000---------|
]-0000-00000-0000-00000---------|
]-5555/88888-7777/9999----------|
]-------------------------------|
]-------------------------------|
]-------------------------------|

Guitar 1 verse
e]----------------------------|
B]----------------------------|
G]----------------------------|
D]--7-7---9-9---5-5---7-7-----|x4
A]--7--7--9--9--5--5--5--5----|
D]--7---7-9---9-5---5-5---5---|

Guitar 2 verse
]-0---0---0---0---0---0---0---0---0---0-----|
]--0---0---0---0---0---0---0---0---0---0----|
]---5---5---8---8---8---7---7---9---9---9---|
]-------------------------------------------|x4
]-------------------------------------------|
]-------------------------------------------|

Gutiar 1 chorus
e]-------------------------------|
B]-------------------------------|
G]-------------------------------|
D]-77777/99999-55555-77777-------|
A]-77777/99999-55555-55555-------|
D]-77777/99999-55555-55555-------|

Guitar 2 chorus
]-00000-00000-00000-00000---------|
]-00000-00000-00000-00000---------|
]-55555-88888-77777-99999---------|
]---------------------------------|
]---------------------------------|
]---------------------------------|

Play Verse Again
Play Chorus Again

Guitar 2 interlude
]-0-0----0-0-----0-0------0-0-0-0-0-0-0-0-0-0------------------------|
]-0--0---0--0----0--0-----0-0-0-0-0-0-0-0-0-0------------------------|
]-7---5--7---5--12---12--12121212121212121212------------------------|
]-5------5-------9--------9-9-9-9-9-9-9-9-9-9------------------------|
]-5------5-------9--------9-9-9-9-9-9-9-9-9-9------------------------|
]-5------5-------9--------9-9-9-9-9-9-9-9-9-9------------------------|

Guitar 1 solo
e]---------------------------------12-15-14-----|
B]----------------------------------------------|
G]----12-11-9-12--------------------------------|
D]--9------------12-15-14-12--------------------|
A]---------------------------14-----------------|
D]----------------------------------------------|

e]---2-3-5-3--------------------5----|
B]------------5-3-2------5-6-8-------|
G]------------------4\6--------------|
D]-----------------------------------|
A]-----------------------------------|
D]-----------------------------------|

e]-----------------------------12-15-17------|
B]--------------------12-15-14---------------|
G]-----9-11-12--12\14------------------------|
D]-------------------------------------------|
A]-------------------------------------------|
D]-------------------------------------------|

Guitar 2 (while guitar 1 is playing solo)
]-0000000000000000--0-0-0-0-0-0-0-0-0-0-0-0-0-0-0-0-----|
]-0000000000000000--0-0-0-0-0-0-0-0-0-0-0-0-0-0-0-0-----|
]-7777888877778888-12121212101010101212121210101010-----|
]-5555555555555555--9-9-9-9-9-9-9-9-9-9-9-9-9-9-9-9-----|
]-5555555555555555--9-9-9-9-9-9-9-9-9-9-9-9-9-9-9-9-----|
]-5555555555555555--9-9-9-9-9-9-9-9-9-9-9-9-9-9-9-9-----|

Play Chorus x8


Guitar 1 End On
e]-----
B]-----
G]-----
D]-7---
A]-7---
D]-7---

Guitar 2 End On
]-0---
]-0---
]-5---
]-0---
]-0---
]-0---


END
Tap to rate this tab
# A B C D E F G H I J K L M N O P Q R S T U V W X Y Z