Song name
# A B C D E F G H I J K L M N O P Q R S T U V W X Y Z

Misc Unsigned Bands - Chemical Warfare - The End tab

Chemical Warfare
The End

Intro/verse  Clean

---------------------------------------------------------------|
---------------------------------------------------------------|
-------14-------14-------14-------14----------14-------14------|
----14-------14-------14-------14----14----14-------14---------|
-12-------12-------12-------12---------------------------------|
----------------------------------------13-------13------------|

-------------------------|
-------------------------|
--------14-------14------|
-----14-------14----14---| X5(Verse comes in after second time)
-------------------------|
--12-------12------------|

 Change to distorted when playing the F
--------------------------------------------------------|
--------------------------------------------------------|
-------14-------14-------14-------14--------------------|
----14-------14-------14-------14----14---3~--2222------|
-12-------12-------12-------12------------3~--2222------|
------------------------------------------1~--0000------|

Chorus

-------------------------------------------------|
-------------------------------------------------|
---------------------55555555-----------5--------|
-77777777--33333333--55555555--5555--2225--5-2---|X2(End on G second time)
-77777777--33333333--33333333--5555--2223--5-2---|
-55555555--11111111------------3333--000---3-0---|

VerseX4
Chorus

Bridge

----------------------------------------------------------------|
----------------------------------------------------------------|
----------1010101010101010------------------1212121212121212----|
-77777777-1010101010101010-1010101010101010-1212121212121212----|x2
-77777777-8-8-8-8-8-8-8-8--1010101010101010-9-9-9-9-9-9-9-9-----|
-55555555------------------8-8-8-8-8-8-8-8----------------------|

Chorus/Clean X1
Chorus/Distorted X3

Intro Riff X2  End on A
Tap to rate this tab
# A B C D E F G H I J K L M N O P Q R S T U V W X Y Z