Song name
# A B C D E F G H I J K L M N O P Q R S T U V W X Y Z

Misc Unsigned Bands - Dark Legend - Corpsefucker tab

-------------------------------------------------------------------------------
			     Corpsefucker - Dark Legend
-------------------------------------------------------------------------------
Tabbed by:The Reaper (dark Legend)
Email: vikingwill@hotmail.com

Tuning: darklegend.webb.se

Vers:
e|---------------------------------------------------------------------------|
B|---------------------------------------------------------------------------|
G|---------------------------------------------------------------------------|
D|---------------------------------------------------------------------------|
A|-0-0-0-0-2-2-2-2-0-0-0-0-4-4-4-4-2-2-2-2-4-4-4-4---------------------------|
E|-0-0-0-0-2-2-2-2-0-0-0-0-2-2-2-2-0-0-0-0-2-2-2-2---------------------------|

Ref:
e|---------------------------------------------------------------------------|
B|---------------------------------------------------------------------------|
G|---------------------------------------------------------------------------|
D|---------------------------------------------------------------------------|
A|-4-0-0-2-0-00--4-0-0-4-0-00------------------------------------------------|
E|-2-0-0-4-0-00--2-0-0-2-0-00------------------------------------------------|
Solo: (låtens höjdpunkt)
e|---------------------------------------------------------------------------|
B|---------------------------------------------------------------------------|
G|-4-4-----4-4-----4-4-----------6-6-4-4-----4-4-----4-4-----------6-6-------|
D|-----6-6-----6-6-----6-6-6-4-4---------6-6-----6-6-----6-6-6-4-4-----4-4---|
A|---------------------------------------------------------------------------|
E|---------------------------------------------------------------------------|

e|---------------------------------------------------------------------------|
B|---------------------------------------------------------------------------|
G|-6-6-----6-6-----6-6-----------8-8-6-6-----6-6-----6-6-----------8-8-------|
d|-----8-8-----8-8-----8-8-8-6-6---------8-8-----8-8-----8-8-8-6-6-----6-6---|
A|---------------------------------------------------------------------------|
E|---------------------------------------------------------------------------|
Tap to rate this tab
# A B C D E F G H I J K L M N O P Q R S T U V W X Y Z