Song name
# A B C D E F G H I J K L M N O P Q R S T U V W X Y Z

Misc Unsigned Bands - A Hopeless Thought - The Sweetness tab

Help us improve GuitareTab! Take a short survey!
this is tuned in drop d.
this is a sweet song.

/= slide
*= both guitars play section
.= palmute
h= hammer on

Intro*
]----------------------------------------------------------|
]----------------------------------------------------------|
]----------------------------------------------------------|
]------------------------------------------------10875-----| x4
]---5h7---7h8---8h108h10---7h8---8h108h10---7h8--10875-----|
]-0-----0-----0----------0-----0----------0------10875-----|

Intro 2*
]-------------------------------------------|
]-------------------------------------------|
]-------------------------------------------|
]-000-7-5--000-8-7--000-10-8---000-8-7------|x4
]-000----7-000----8-000-----10-000----8-----|
]-000------000------000--------000----------|

Pre-Verse Breakdown*(heavy distortion)
]------1414------1616------1818------2020------|
]------1212------1414------1616------1818------|
]----------------------------------------------|
]----------------------------------------------|
]----------------------------------------------|
]-0-000-----0-000-----0-000-----0-000----------|

Pre-Verse 2*
]-----------------|
]-----------------|
]-----------------|
]-77777-----------|
]-99999-----------|
]--------17/------|

Verse*
]---------------------------------------------------------|
]---------------------------------------------------------|
]---------------------------------------------------------|
]-7777-6666-7777-6666-11111111-9999-12121212-11111111-----|x4
]-9999-9999-9999-9999--9-9-9-9-9999--9-9-9-9--9-9-9-9-----|
]---------------------------------------------------------|

Chorus Guitar 2
]---------------------------------------------------|
]---------------------------------------------------|
]-------------12/10-1010/9-99/10-1010/9--99/7-7-----|
]-77777555555--x-x---x-x-x-xx-x---x-x-x--xx-x-x-----|x4
]-77777555555-10/8---8-8/7-77/8---8-8/7--77/5-5-----|
]-77777555555---------------------------------------|

Chorus Guitar 1 (plays while Guitar 2 plays strumming part)
]---------------------------|
]---------------------------|
]---------------------------|
]--7-5-10-7h87h8------------|x4
]---------------------------|
]---------------------------|

Play Pre-Verse 2
Verse
Chorus

Breakdown 1* (after 2nd chorus)
]----------------------------------------------------------------|
]----------------------------------------------------------------|
]----------------------------------------------------------------|
]---------------------------108-----------------------------87---|x2
]--5h7-7h8-8h10-7h8-5h7-7h8-108---5h7-7h8-8h10-7h8-5h7--7h8-87---|
]-0---0---0----0---0---0----108--0---0---0----0---0----0----87---|

Then play Intro 2* again
Then Guitar 2 continues to play Breakdown 1 again

Guitar 1 (play while Guitar 2 is playing Breakdown 1 for 2nd time)
]------------------------------------------------|
]------------------------------------------------|
]------------------------------------------------|
]--------------------------------------108-------|
]--12h14-14h15-15h17-14h15-12h14-14h15-108-------|
]-0-----0-----0-----0-----0-----0------108-------|

]--------------------------------------------|
]--------------------------------------------|
]--------------------------------------------|
]--------------------------------------87----|x2
]--12h14-14h15-15h17-14h15-12h14-14h15-87----|
]-0-----0-----0-----0-----0-----0------87----|

Breakdown 2* (on the second time played Guitar 1 plays an octave higher)
]----------------------------------------------|
]----------------------------------------------|
]----------------------------------------------|
]----------------8-7-------------------10-8-7--|
]-000-8-7-5-0-00----8-7-000-8-7-5-0-00---------|
]-000-------0-00--------000-------0-00---------|

]-------------------------------------------------------|
]-------------------------------------------------------|
]-------------------------------------------------------|
]----------------8-7--------10-8-7--------8-7-----------|x4
]-888-8-7-5-8-88----8-7-888--------10-8-7-----8-7-5-----|
]-888-------8-88--------888-----------------------------|

Breakdown 3*
]--------------------------------------------------------------------------|
]--------------------------------------------------------------------------|
]-------15-------14-------12-------14-------15-------14-------12-------14--|
]-0-0-0--x-0-0-0--x-0-0-0--x-0-0-0--x-0-0-0--x-0-0-0--x-0-0-0--x-0-0-0--x--|
]-0-0-0-13-0-0-0-12-0-0-0-10-0-0-0-12-0-0-0-13-0-0-0-12-0-0-0-10-0-0-0-12--|
]-0-0-0----0-0-0----0-0-0----0-0-0----0-0-0----0-0-0----0-0-0----0-0-0-----|


]--------------------------------------------------------------------------|
]--------------------------------------------------------------------------|
]-------15-------14-------12-------14-------15-------14-------12-------14--|
]-8-8-8--x-8-8-8--x-8-8-8--x-8-8-8--x-0-0-0--x-0-0-0--x-0-0-0--x-0-0-0--x--|x4
]-8-8-8-13-8-8-8-12-8-8-8-10-8-8-8-12-0-0-0-13-0-0-0-12-0-0-0-10-0-0-0-12--|
]-8-8-8----8-8-8----8-8-8----8-8-8----0-0-0----0-0-0----0-0-0----0-0-0-----|


END
THANK U
Related for A Hopeless Thought - The Sweetness tab