Song name
# A B C D E F G H I J K L M N O P Q R S T U V W X Y Z

Misc Unsigned Bands - Tears To Ashes - False Fate tab

Help us improve GuitareTab! Take a short survey!
INTRO

E--------------------------------------|
B--------------------------------------|
G--------------------------------------|    X1
D--------------------------------------|
A--------------------------------------|
D----0-0-5-5-5-5-6-6-8-8-6-6-5-5-5-5B--|

Verse1
E--------------------------------------|
B--------------------------------------|
G--------------------------------------|
D--------------------------------------|     X6
A--------------------------------------|
D----0-0-5-5-5-5-6-6-8-8-6-6-5-5-5-5---|

CHORUS
E---------------------------------------------|
B---------------------------------------------|
G---------------------------------------------|
D--7----7-5-4---5--5-3-1----3--2-4-2--2-------|X2
A--5------------3-----------1---------0-------|
D---------------------------------------------|

BRIDGE
E-------------------------------------------------------------|
B-------------------------------------------------------------|
G-------------------------------------------------------------|
D--7--7-7--7-7-7--5--5-5--5-5-5--3--3-3--3-3-3--5--5-5--5-5-5-|X2
A--5--5-5--5-5-5--3--3-3--3-3-3--1--1-1--1-1-1--3--3-3--3-3-3-|
D-------------------------------------------------------------|

Verse2
E--------------------------------------|
B--------------------------------------|
G--------------------------------------|
D--------------------------------------|     X7
A--------------------------------------|
D----0-0-5-5-5-5-6-6-8-8-6-6-5-5-5-5---|


CHORUS
E---------------------------------------------|
B---------------------------------------------|
G---------------------------------------------|
D--7----7-5-4---5--5-3-1----3--2-4-2--2-------|X2
A--5------------3-----------1---------0-------|
D---------------------------------------------|


SOLO
E--------------------------------------------------------------------------|
B--------------------------------------------------------------------------|
G--------------------------------------------------------------------------|
D-2H---5H---12H-14H-----------2H----5H----12H---14H------------------------|
A--------------------------------------------------------------------------|
D--------------------------------------------------------------------------|


SOLO CONT.
E--------------------------------------------------------------------------|
B--------------------------------------------------------------------------|
G--------------------------------------------------------------------------|
D---13--14--13--14--13--14--16--14--13--14--13--14--13--14--16--14---------|
A--------------------------------------------------------------------------|
D--------------------------------------------------------------------------|


SOLO CONT.
E--------------------------------------------------------------------------|
B--------------------------------------------------------------------------|
G--13--14--13--14--13--14--16--14--13--14--13--14--13--14--16--14----------|
D--------------------------------------------------------------------------|
A--------------------------------------------------------------------------|
D--------------------------------------------------------------------------|

SOLO CONT.

E--------------------------------------------------------------------------|
B--------------------------------------------------------------------------|
G--------------------------------------------------------------------------|
D---13--14--13--14--13--14--16--14--13--14--13--14--13--14--16--14---------|
A--------------------------------------------------------------------------|
D--------------------------------------------------------------------------|


SOLO CONT.
E--------------------------------------------------------------------------|
B--------------------------------------------------------------------------|
G--------------------------------------------------------------------------|
D-------12H---10H---8H----5H-----2H---5H----12H---14B----------------------|
A--------------------------------------------------------------------------|
D--------------------------------------------------------------------------|

CHORUS
E---------------------------------------------|
B---------------------------------------------|
G---------------------------------------------|
D--7----7-5-4---5--5-3-1----3--2-4-2--2-------|X2
A--5------------3-----------1---------0-------|
D---------------------------------------------|



Verse3

E--------------------------------------|
B--------------------------------------|
G--------------------------------------|
D--------------------------------------|     X8
A--------------------------------------|
D----0-0-5-5-5-5-6-6-8-8-6-6-5-5-5-5---|

outro

E--------------------------------------|
B--------------------------------------|
G--------------------------------------|
D-------------7------------------------|     
A-------------5------------------------|
D-------------5------------------------|




Related for Tears To Ashes - False Fate tab