Song name
# A B C D E F G H I J K L M N O P Q R S T U V W X Y Z

Misc Unsigned Bands - Oakdene - Smile tab

another one of my bands tabs, this ones our most well known


Intro/verse both guitars (clean)

Am,F,C,G

Chorus guitar1 (distorted)

e|------------------------------|
b|------------------------------|x4
g|-777777-999999-444444---------|
d|-777777-999999-444444-555-777-|
a|-555555-777777-222222-555-577-|
e|----------------------333-555-|

Chorus guitar2 (clean)

e|-2222222222222222-2222222222222222-|
b|-0000000000000000-3333333333333333-|x4
g|-----------------------------------|
d|-----------------------------------|
a|-----------------------------------|
e|-----------------------------------|

Repeat intro and chorus 

Interlude guitar2 (distortion) guitar1 plays chorus


e|----------------------------------------------------------|
b|------------------------------------10-7-----------10-7---|
g|-7-9-7-9-7-9--7-9-7-9-7-9---7-9-7-9--------7-9-7-9--------|
d|------------9-------------9--------------9--------------9-|
a|----------------------------------------------------------|
e|----------------------------------------------------------|

Solo guitar2 (distortion) guitar1 still plays chorus

e|----------------------------------------------------------9-7------------|
b|------------------------------------------------10-7-10-7-----10-7-------|
g|-7-9-7------7-9b-7---7-7-9-7-------7-9-7------7-------------------9-7-9-7|
d|------9-7-9--------9---------9-7-9-------9-7-9---------------------------|
a|-------------------------------------------------------------------------|
e|-------------------------------------------------------------------------|
                                           x2

both guitars play the chorus riff

repeat verse, chorus and solo (play solo three times though)

End on this

e|-----------------|
b|-----------------|
g|-9-777-9-777-977-|x3
d|-----------------|
a|-----------------|
e|-----------------|


hope this suffices! ill tab some more soon
Tap to rate this tab
# A B C D E F G H I J K L M N O P Q R S T U V W X Y Z