Song name
# A B C D E F G H I J K L M N O P Q R S T U V W X Y Z

Misc Unsigned Bands - Two For One - Land Of Makebelieve tab

Help us improve GuitareTab! Take a short survey!
repeat this intro like 3 times then end on this e-|-----------|
                                                B-|---3-------|
                                                G-|---0-------|
                                                D-|---0-------|
                                                A-|---3-------|
                                                D-|-----------|

INTRO:
e-|-------------------------------------------------------------------------|
B-|--------------3--------------3--------------3---------------3------------|
G-|-------0---0----0-------0---0--0-------0---0--0--------0---0--0----------|
D-|----0----0--------0---0---0------0---0---0------0----0---0------0--------|
A-|--3-----------------2--------------0----------------2--------------------|
E-|-------------------------------------------------------------------------|


CHORUS: strum these chords (dont strum the last chord

e-|--3------0------0------3------0------0------3------0------0------3-----0-|
B-|--0------1------1------0------1------1------0------1------1------0-----1-|
G-|--0------2------0------0------2------0------0------2------0------0-----0-|
D-|--0------2------2------0------2------2------0------2------2------0-----2-|
A-|--2------x------3------2------x------3------2------x------3------2-----3-|
E-|--3------x------x------3------x------x------3------x------x------3-----0-|


THE INTRO IS ALSO USED FOR ALL THE VERSES SO AFTER YOU PLAY THE CHORUS PLAY THE INTRO
OVER THEN YOU CAN REPEAT LIKE 3 TIMES...




             --------------------------------------------------
            | THIS SONG IS THE SOUL PROPERTY OF THE WRITER AND |
            | THE BAND WHO WROTE IT. THIS SONG MAY ONLY BE USED|
            | FOR PERSONAL STUDY.                              |
             --------------------------------------------------
Related for Two For One - Land Of Makebelieve tab