Song name
# A B C D E F G H I J K L M N O P Q R S T U V W X Y Z

Misc Unsigned Bands - The Squatters - Never Enough tab

----------------------------------------------------------------------------
                          The Squatters
                           Never enough
----------------------------------------------------------------------------

The Squatters are a new upcoming hardcore punk band. They have released a
new album, Easing the pain, this is one of their song from it.

b=Bend
/slide up
\slide down
x mute string

Intro

e--------------------|
B--------------------|
G--------------------| x4
D-2-2--2-2--2-2--2-2-|
A-2-2--2-2--2-2--2-2-|
E-0-0-00-0-00-0-00-0-|
p.m------------------|


Gt 1

e-12----12----15----15----------------------------------------|
B-15b18-15b18-18b20-18b20-------------------------------------|
G-------------------------------------------------------------|
D------------------------x\7-7-7-7-5-5/7-5-2-2--2-2--2-2--2-2-|
A------------------------x\7-7-7-7-5-5/7-5-2-2--2-2--2-2--2-2-|
E------------------------x\5-5-5-5-3-3/5-3-0-0-00-0-00-0-00-0-|
                                          p.m-----------------|

Gt 2

e------------------------------------------|
B------------------------------------------|
G-9-9-9-9-12121212-----------------------0-|
D-9-9-9-9-12121212-------7-7-7-7-5-5-7-5-2-|
A-7-7-7-7-10101010-------7-7-7-7-5-5-7-5-2-|
E------------------------5-5-5-5-3-3-5-3-0-|

Repeat both

Verse

Im never.......
e--------------------------------------|
B--------------------------------------|
G--------------------x9-9-9-9-12121212-|
D-2-2--2-2--2-2--2-2-x9-9-9-9-12121212-|
A-2-2--2-2--2-2--2-2-x7-7-7-7-10101010-|
E-0-0-00-0-00-0-00-0-x0----------------|

Theres always a........
e-------------------|
B-------------------|
G-----------------0-|
D-7-7-7-7x5-5-7-5-2-|
A-7-7-7-7x5-5-7-5-2-|
E-5-5-5-5x3-3-5-3-0-|

repeat

Pre-chorus

You piss me off....
e-----------------         ------------------|
B-----------------         ------------------|
G-----4-4---------         -9-9-9-9-12121212-|
D-2-2-4-4-5-5-7-7- X3 THEN -9-9-9-9-12121212-|
A-2-2-2-2-5-5-7-7-         -7-7-7-7-10101010-|
E-0-0-----3-3-5-5-         ------------------|


Chorus

Why don't you......
e---------------------------------|
B---------------------------------|
G-----------------7-7-7-7-5-5-5-5-|
D-5-5-5-5-7-7-7-7-7-7-7-7-5-5-5-5-|
A-5-5-5-5-7-7-7-7-5-5-5-5-3-3-3-3-|
E-3-3-3-3-5-5-5-5-----------------|


You've always got to be.....
e----------------------------------|
B----------------------------------|
G-----------------7-7-7-7-7-7-7-7x-|
D-5-5-5-5-7-7-7-7-7-7-7-7-7-7-7-7x-|
A-5-5-5-5-7-7-7-7-5-5-5-5-5-5-5-5x-|
E-3-3-3-3-5-5-5-5------------------|

repeat Chorus

THats pretty much the whole song, just repeat it once more and then the endings is...

Never enough...
e--------------------------------------|
B--------------------------------------|
G--------------------------------------|
D-8-8-5-8-5-8-5-8-5-8-5-8-5-8-8-8-8-5\-|
A-8-8-5-8-5-8-5-8-5-8-5-8-5-8-8-8-8-5\-|
E-3-6-3-6-3-6-3-6-3-6-3-6-3-6-6-6-6-3\-|

Look out for the new album.
Tap to rate this tab
 
# A B C D E F G H I J K L M N O P Q R S T U V W X Y Z