Song name
# A B C D E F G H I J K L M N O P Q R S T U V W X Y Z

Misc Unsigned Bands - Bullets Goes Better - Looking At Her Letters tab

this is my first good and complete band tab witouth updates its really great so enjoy
it guys i hope you do like lyric please post me a comment or send me a email about to
jasflick@hotmail.com please i would be really thanked for you guys opinion

Tuning Normal

>>Since here its distortioned<<...
Intro
|---------------------------------------------------------|x2
|---------------------------------------------------------|
|---------------------------------------------------------|
|-----0------0--------0----0-----0----0------0----0----0--|
|-2------2---------------------------------------------2--|
|---3------3----3-2-2---22---2-33--33---3-22---22---2-----|

* The second time of the intro finish on 4 and let ring.
                                         2
Intro 2
|---------------------------------------------------------|-|
|---------------------------------------------------------| |
|---------------------------------------------------------| |
|---0---0---0---0---0---0---0~----------0---0---0---0~----| |
|--2---2---0---0---2---2---2~----------2---2---0---2~-----| |
|-3---3---2---2---0---0---0~--(x2)----3---3---2---0~--(x2)| |
                                                           (x1)
|---------------------------------------------------------| |
|---------------------------------------------------------| |
|---------------------------------------------------------| |
|-5~--4~--2~~~~------5~--4/9~-----------------------------| |
|-5~--4~--2~~~~------5~--4/9~-----------------------------| |
|-3~--2~--0~~~~------3~--2/7~-----------------------------|-|

verse 1
|-------------------------------------------------|
|-------------------------------------------------|
|-------------------------------------------------|
|-----0---------0--------0--------0---------------|
|-2-2---2------------0-0---0--------0-------------|
|-----------3-3---3-----------2-2-----------------|

Riff
|----------------------------------------------|
|----------------------------------------------|
|-2-222222----------2-222222-3-333333----------|
|-2-222222-5-555555-2-222222-3-333333----------|
|-2-222222-5-555555-2-222222-3-333333----------|
|-0-000000-3-333333-2-222222-3-333333----------|

Chorus
|----------------------------------|
|----------------------------------|
|-2-2222--------2-2222-------------|
|-2-2222-5-5-55-2-2222-3-3-33------|
|-2-2222-5-5-55-2-2222-3-3-33------|
|-0-0000-3-3-33-2-2222-3-3-33------|

Verse 2
|-----------------------------------------|
|-----------------------------------------|
|-----------------------------------------|
|---0---4---4---0---2--4------------------|
|-2---2---2---0---0-------4-0-------------|
|-----------------------------------------|

Verse I
im lookind at her letters
really want to burn them
for all the tears she put on it
that are like bleeding scars for me
stealing away her smiles
and giving away her madness
shes dying for me shes dying for me

Riff

Chorus
So are you proud of my murder
ive killed you witouth reasons
for loving me for loving me. << Riff while singing this
so did you know what you did
when you was writting those letters
you made them like if love were blinding you << do riff since here and
and i really think that love messed up. << finish in 2.0.0

Verse 2

why you have to be the one
in love with me, why i have to be the
one you love most...

and scream doing riff but rythm a lot changed ( Why you!!!) lots of times...

them intro as an outro.
Tap to rate this tab
 
# A B C D E F G H I J K L M N O P Q R S T U V W X Y Z