Song name
# A B C D E F G H I J K L M N O P Q R S T U V W X Y Z

Misc Unsigned Bands - Point Defiance - Falling Again tab

-------------------------------------------------------------------------------
			      Falling Again - Point Defiance
-------------------------------------------------------------------------------
Tabbed by: ferretbpdog

Email:ferretbpdog@yahoo.com


Legend:
| /  slide up
| \  slide down
| h  hammer-on
| p  pull-off
| ~  vibrato
| +  harmonic
| x  Mute note


Tuning:
DADGBe

e|------------------------------------------------------------------|
B|------------------------------------------------------------------|
G|-------9b----------9b----------9b---------------------------------|
D|--0-0-0-------0-0-0-------0-0-0--------3-/-5-5--3-----------------|
A|--0-0-0-------0-0-0-------0-0-0--------3---5-5--3-----------------|
D|--0-0-0-------0-0-0-------0-0-0--------3---5-5--3-----------------|


D5                                                                          
What would you say if I lost all my faith and laid face down in my own 
       F5 G5   
disgrace
D5                                                           F5 G5
Am I guilty, do you trust me, I'm stumbling like a 3 legged dog

[Chorus]
D5       F5            G5
If I fall down pick me up
F5
Weren't you caught shaking again
D5       F5            G5
Call me low and catch me
F5
Here we go falling again

D5 
The weight of the world spreads the soul that I bear That I live can't get 
              F5 G5
it out of my head
D5                                                 G5 F5
Am I living Am I dying Lately seems I don't even care


What would you say if I lost all my faith and laid face down in my own disgrace
Am I guilty, do you trust me, I'm stumbling like a 3 legged dog




===========================================================================
Tap to rate this tab
 
# A B C D E F G H I J K L M N O P Q R S T U V W X Y Z