Guitaretab - guitar tabs
Song name
# A B C D E F G H I J K L M N O P Q R S T U V W X Y Z

Misc Unsigned Bands - Pingpongbank - My Girl tab

-------------------------------------------------------------------------------
			     MY GIRL - PingpongBank
-------------------------------------------------------------------------------
Tabbed by: thunderwonder
Email: dasmonsterausdertiefe@networld.at

Tuning: E (Standard)

intro (clean)(play twice)

e|-7-7-3-3-7-7-2-2-----------------------------------------------------------|
B|5-5-3-3-5-5-2-2------------------------------------------------------------|
G|---------------------------------------------------------------------------|
D|---------------------------------------------------------------------------|
A|---------------------------------------------------------------------------|
E|---------------------------------------------------------------------------|

Verse (clean)
chords:
  D   G   E
e|5---3---0------------------------------------------------------------------|
B|7---3---0------------------------------------------------------------------|
G|7---4---1------------------------------------------------------------------|
D|7---5---2------------------------------------------------------------------|
A|5---5---2------------------------------------------------------------------|
E|5---3---0------------------------------------------------------------------|

           D
It was the greatest moment in my life
         G
When you affirmed my question on cell-phone
  D
I asked you, if you want to go with me
    E
The most important game ever was won

repeat intro

(use same chords as above)
Iíve never expected a girl like you
When I thought about my first relation
Youíre so extremely sweet, youíre perfect
I think about you in every situation
[ Tab from: http://www.guitaretab.com/m/misc-unsigned-bands/68930.html ]
Chorus (distortion)
chords:
  D5   A5   C5   B5   F5   E5
e|---------------------------------------------------------------------------|
B|---------------------------------------------------------------------------|
G|7---------5----4-----------------------------------------------------------|
D|7----7----5----4----3----2-------------------------------------------------|
A|5----7----3----2----3----2-------------------------------------------------|
E|-----5--------------1----0-------------------------------------------------|
   D5                A5
My girl, you are the one and only for me
D5            C5                B5
Without you I canít and I donít want to be
D5                               A5
Please, little darling, donít be angry with me
D5                         F5          E5
Iím in love with you and I always will be

repeat intro (distortion)

verse (distortion)
new chords
  G5
e|---------------------------------------------------------------------------|
B|---------------------------------------------------------------------------|
G|---------------------------------------------------------------------------|
D|5--------------------------------------------------------------------------|
A|5--------------------------------------------------------------------------|
E|3--------------------------------------------------------------------------|
  D5
I feel like I know you since I can think
    G5
Whatever Iím able to say or do
       D5
I will put my god-damn best food forward
        E5
Iím controlled by the fact, that I love you

(use same chords)
No feeling I know is more beautiful
Than having you close and holding you tight
Simone, even if youíre far away,
Listen, love: I want to kiss you good night

repeat chorus (distortion)

break (distortion) (play twice)

e|---------------------------------------------------------------------------|
B|---------------------------------------------------------------------------|
G|7777(77)------7777775544(44)7777(77)--------7777(77)-----------------------|
D|------7777(77)----------------------7777(77)--------3322(22)---------------|
A|---------------------------------------------------------------------------|
E|---------------------------------------------------------------------------|

repeat chorus twice (distortion)
repeat intro twice (distortion)
Related for Pingpongbank - My Girl tab