Song name
# A B C D E F G H I J K L M N O P Q R S T U V W X Y Z

Misc Unsigned Bands - Mixed Breed - A Little Bit Crazy tab

-------------------------------
A little bit crazy-Mixed breed
-------------------------------
tabber-mat waters
email-slash_gibsons@hotmail.com
intro/verse
e--------------------------------------------------------|
b--------------------------------------------------------|
g--------------------------------------------------------|
d-2-2-2-2-2-2-2-2-2-2-2-2-2-2-2-2------------------------|
a-0-0-4-0-0-0-4-0-0-0-4-0-0-0-4-0------------------------|
e--------------------------------------------------------|

e--------------------------------------------------------|
b--------------------------------------------------------|
g-2-2-2-2-2-2-2-2-2-2-2-2-2-2-2-2------------------------|
d-0-0-4-0-0-0-4-0-0-0-4-0-0-0-4-0------------------------|X6
a--------------------------------------------------------|
e--------------------------------------------------------|

CHORUS
gtr 1
e-------------------------2-------------------------------|
b-2-2-3-5-2-2-3-5-2-2-3-5---5-3---------------------------|
g---------------------------------------------------------|X4
d---------------------------------------------------------|
a---------------------------------------------------------|
gtr 2
e---------------------------------------------------------|
b---------------------------------------------------------|
g-4-4-4-4----7-7-7-7--------------------------------------|
d-4-4-4-4----7-7-7-7---7-7-7-7-7-7-7-7--------------------|X4
a-2-2-2-2----5-5-5-5---7-7-7-7-7-7-7-7--------------------|
e----------------------5-5-5-5-5-5-5-5--------------------|
e---------------------------------------------------------|
INTRO/VERSE
CHORUS
SOLO
gtr 1
E---------------------------------------------------------|
B---------------------------------------------------------|
G---------------------------------------------------------|
D-9-9-9-9-9-9-12-12-11-9-7-7-7-7-7-7-12-12-11-7-----------|
A---------------------------------------------------------|
E---------------------------------------------------------|
GTR 2
E---------------------------------------------------------|
B---------------------------------------------------------|
G---------------------------------------------------------|
D-4-4-4-4-4-4-7-7-6-4-2-2-2-2-2-2-2-7-7-6-2-4-4-4-4-4-4-4-|
A-2-2-2-2-2-2-5-5-4-2-0-0-0-0-0-0-0-5-5-4-0-2-2-2-2-2-2-2-|
E---------------------------------------------------------|
gtr 3
E---------------------------------------------------------|
B---------------------------------------------------------|
G-4-4-4-4--7-7-7-7----------------------------------------|
D-4-4-4-4--7-7-7-7--7-7-7-7-7-7-7-7-----------------------|X2
A-2-2-2-2--5-5-5-5--7-7-7-7-7-7-7-7-----------------------|
E-------------------5-5-5-5-5-5-5-5-----------------------|
CHORUS
BRIDGE
E---------------------------------------------------------|
B-2----3-2---3-2---5-3-2-----3-2---3-2---10-7-5-3---------|
G---------------------------------------------------------|
D---------------------------------------------------------|
A---------------------------------------------------------|
E---------------------------------------------------------|
CHORUS
OUTRO=INTRO
Thats it....
any poblems email them to me.
cheers
www.myspace.com/mixedbreedband
Tap to rate this tab
# A B C D E F G H I J K L M N O P Q R S T U V W X Y Z