Song name
# A B C D E F G H I J K L M N O P Q R S T U V W X Y Z

Misc Unsigned Bands - Colt Point - Bravado tab

standard tuning

x-palm mute

intro
Guitars 1 and 2
|----------------------------|
|----------------------------|
|----------------------------| x3
|-3-33----------444----------|
|-1-11---3-33---666---6-66---|
|--------1-11---------8-88---|

|----------------------------|
|----------------------------|
|----------------------------| x1
|-3-33----------444----------|
|-1-11---3-33---666---4------|
|--------1-11---------6------|

verse
Guitar 1
  xxx xxx  xxx xxx  xxx xxx  xxx xxx
|-------------------------------------|
|-------------------------------------|
|-------------------------------------| x3
|-333-333-----------444-444-----------|
|-111-111--333-333--666-666--666-666--|
|----------111-111-----------888-888--|

Guitar 2
  x x x x  x x x x  x x x x  x x x x
|-------------------------------------|
|-------------------------------------|
|-------------------------------------| x3
|-3---3-------------4---4-------------|
|---1---1--3---3------6---6--6---6----|
|------------1---1-------------8---8--|

Guitar 1
  xxx xxx  xxx xxx  xxx xxx  xxx xxx
|-------------------------------------|
|-------------------------------------|
|-------------------------------------| x1
|-333-333-----------444-444-----------|
|-111-111--333-333--666-666--444-444--|
|----------111-111-----------666-666--|

Guitar 2
  x x x x  x x x x  x x x x  x x x x
|-------------------------------------|
|-------------------------------------|
|-------------------------------------| x1
|-3---3-------------4---4-------------|
|---1---1--3---3------6---6--4---4----|
|------------1---1-------------6---6--|

chorus
Guitars 1 and 2
|---------------------------------------------------------------------| 
|---------------------------------------------------------------------|
|---------------------------------------------------------------------| x2
|----------10-10-10----------10-10-10----------8-8-8----------888-6666|
|-8-88-888-8--8--8--8-88-888-8--8--8--8-88-888-6-6-6-8-88-888-666-4444|
|-6-66-666----------6-66-666----------6-66-666-------6-66-666---------|

|--------------| 
|--------------|
|--------------|
|-333333333----|
|-111111111----|
|--------------|
(pause)
Guitars 1 and 2
|----------------------------|
|----------------------------|
|----------------------------| x3
|-3-33----------444----------|
|-1-11---3-33---666---6-66---|
|--------1-11---------8-88---|

|----------------------------|
|----------------------------|
|----------------------------| x1
|-3-33----------444----------|
|-1-11---3-33---666---4------|
|--------1-11---------6------|

verse
Guitar 1
  xxx xxx  xxx xxx  xxx xxx  xxx xxx
|-------------------------------------|
|-------------------------------------|
|-------------------------------------| x3
|-333-333-----------444-444-----------|
|-111-111--333-333--666-666--666-666--|
|----------111-111-----------888-888--|

Guitar 2
  x x x x  x x x x  x x x x  x x x x
|-------------------------------------|
|-------------------------------------|
|-------------------------------------| x3
|-3---3-------------4---4-------------|
|---1---1--3---3------6---6--6---6----|
|------------1---1-------------8---8--|

Guitar 1
  xxx xxx  xxx xxx  xxx xxx  xxx xxx
|-------------------------------------|
|-------------------------------------|
|-------------------------------------| x1
|-333-333-----------444-444-----------|
|-111-111--333-333--666-666--444-444--|
|----------111-111-----------666-666--|

Guitar 2
  x x x x  x x x x  x x x x  x x x x
|-------------------------------------|
|-------------------------------------|
|-------------------------------------| x1
|-3---3-------------4---4-------------|
|---1---1--3---3------6---6--4---4----|
|------------1---1-------------6---6--|

chorus
Guitars 1 and 2
|---------------------------------------------------------------------| 
|---------------------------------------------------------------------|
|---------------------------------------------------------------------| x2
|----------10-10-10----------10-10-10----------8-8-8----------888-6666|
|-8-88-888-8--8--8--8-88-888-8--8--8--8-88-888-6-6-6-8-88-888-666-4444|
|-6-66-666----------6-66-666----------6-66-666-------6-66-666---------|

|------------------|
|------------------|
|------------------|
|-3333333333333333-|
|-1111111111111111-|
|------------------|

Bridge
Guitars 1 and 2
|-------------------------------------|
|-------------------------------------|
|-------------------------------------| x3
|-5-55-555----------------------------|
|-3-33-333-5-55-555-3-33-333-7-77-777-|
|----------3-33-333-1-11-111-5-55-555-|

|----------------------------------------------|
|----------------------------------------------|
|----------------------------------------------|
|-5-55-555-------------------------------------|
|-3-33-333-5-55-555-3-33-333-7-77-777-7-77-777-|
|----------3-33-333-1-11-111-5-55-555-5-55-555-|

chorus
Guitars 1 and 2
|---------------------------------------------------------------------| 
|---------------------------------------------------------------------|
|---------------------------------------------------------------------| x2
|----------10-10-10----------10-10-10----------8-8-8----------888-6666|
|-8-88-888-8--8--8--8-88-888-8--8--8--8-88-888-6-6-6-8-88-888-666-4444|
|-6-66-666----------6-66-666----------6-66-666-------6-66-666---------|

|--------------| 
|--------------|
|--------------|
|-333333333----|
|-111111111----|
|--------------|
(pause)
Guitars 1 and 2
|----------------------------|
|----------------------------|
|----------------------------| x3
|-3-33----------444----------|
|-1-11---3-33---666---6-66---|
|--------1-11---------8-88---|

|----------------------------|
|----------------------------|
|----------------------------| x1
|-3-33----------444----------|
|-1-11---3-33---666---4------|
|--------1-11---------6------|

|----------------------------|
|----------------------------|
|----------------------------| x3
|-3-33----------444----------|
|-1-11---3-33---666---6-66---|
|--------1-11---------8-88---|

|----------------------------|
|----------------------------|
|----------------------------| x1
|-3-33----------444----------|
|-1-11---3-33---666---4------|
|--------1-11---------6------|

outro
Guitars 1 and 2
               
|---------------------|
|---------------------|
|---------------------| x1
|-33------444---------|
|-11--33--666--4------|
|-----11-------6------|

This was one of our first songs, hope you like it!
Tap to rate this tab
 
# A B C D E F G H I J K L M N O P Q R S T U V W X Y Z