Song name
# A B C D E F G H I J K L M N O P Q R S T U V W X Y Z

Misc Unsigned Bands - Hoist - Hannah tab

Help us improve GuitareTab! Take a short survey!
Hoist - Hannah

Standard tuning

Intro (W/ effects)
[--2--]
[--3--]
[--4--]4x
[--4--]
[--2--]
[-----]


Verses
[--2----|--3----|-------|--2----]
[--3----|--3----|-------|--3----]
[--4--6x|--0--6x|--2--6x|--4--6x]
[--4----|--0----|--2----|--4----]
[--2----|--2----|--0----|--2----]
[-------|--3----|-------|-------]

Chorus
[--2--|-----|--3--|
[--3--|--2--|--3--|
[--4--|--2--|--0--|
[--4--|--2--|--0--|
[--2--|--0--|--2--|
[-----|-----|--3--|

Related for Hoist - Hannah tab