Song name
# A B C D E F G H I J K L M N O P Q R S T U V W X Y Z

Misc Unsigned Bands - Duktil - Sabes tab

Metanse a www.myspace.com/duktil para mas informacion

Duktil
Sabes (Tab)

Intro (x2)

Guitarra 1
|----------------|----------------|----------------|----------------|
|----------------|----------------|----------------|----------------|
|----------------|----------------|----------------|----------------|
|--9-9-9-9-9-9-9-|--7-7-7-7-7-7-7-|----------------|--------------99|
|-7-7-7-7-7-7-7--|-5-5-5-5-5-5-5--|--7-7-7-7-7-7-7-|--9-9-9-9-9-9-99|
|----------------|----------------|-5-5-5-5-5-5-5--|-7-7-7-7-7-7--77|

Guitarra 2
|-----------------|-----------------|----------------|---------------|
|-----------------|-----------------|----------------|---------------|
|--9999999999999--|--7777777777777--|----------------|---------------|
|--9999999999999--|--7777777777777--|--777777777777--|--99999999999--|
|--7777777777777--|--5555555555555--|--777777777777--|--99999999999--|
|-----------------|-----------------|--555555555555--|--77777777777--|

Verso
(Puro bajo)
Todo era normal, como todos los dias desde q tu y yo salíamos
Pensé q juntos seguiríamos

Sabes, q yo te adoro
Q por ti daba más q oro
No se por q lo decidiste
Creo q estaré un poco triste


Pre-coro

Pues lo hiciste
Me destruiste
Llorar no fue el remedio para dejar de pensarte
Guitarra 1 y 2
|-----------------|-----------------|----------------|---------------|
|-----------------|-----------------|----------------|---------------|
|--9--------------|--9--------------|--9-------------|--9------------|
|--9-99977--------|--9-99977--------|--9-99977-------|--9-99977--9999|
|--7-99977--------|--7-99977--------|--7-99977-------|--7-99977--9999|
|----77755--------|----77755--------|----77755-------|----77755--7777|

Coro

Regresar quedo en el olvido 
Seguire asi, como he estado desde q me fui
Recordando los momentos q perdi… sin ti
Guitarra 1 y 2
|-----------------|-----------------|----------------|---------------|
|-----------------|-----------------|----------------|---------------|
|--9999999999999--|--7777777777777--|----------------|---------------|
|--9999999999999--|--7777777777777--|--777777777777--|--99999999999--|
|--7777777777777--|--5555555555555--|--777777777777--|--99999999999--|
|-----------------|-----------------|--555555555555--|--77777777777--|
|-----------------|-----------------|----------------|---------------|
|-----------------|-----------------|----------------|---------------|
|-----------------|-----------------|----------------|---------------|
|--7777777777777--|--6666666666666--|--777777777777--|--99999999999--|
|--7777777777777--|--6666666666666--|--777777777777--|--99999999999--|
|--5555555555555--|--4444444444444--|--555555555555--|--77777777777--|

Bridge

Guitarra 1
|----------------|----------------|----------------|----------------|
|----------------|----------------|----------------|----------------|
|----------------|----------------|----------------|----------------|
|--9-9-9-9-9-9-9-|--7-7-7-7-7-7-7-|----------------|--------------99|
|-7-7-7-7-7-7-7--|-5-5-5-5-5-5-5--|--7-7-7-7-7-7-7-|--9-9-9-9-9-9-99|
|----------------|----------------|-5-5-5-5-5-5-5--|-7-7-7-7-7-7--77|

Guitarra 2
|-----------------|-----------------|----------------|---------------|
|-----------------|-----------------|----------------|---------------|
|--9999999999999--|--7777777777777--|----------------|---------------|
|--9999999999999--|--7777777777777--|--777777777777--|--99999999999--|
|--7777777777777--|--5555555555555--|--777777777777--|--99999999999--|
|-----------------|-----------------|--555555555555--|--77777777777--|

Verso
(Puro bajo)
Ahora ya estoy de nuevo aquí 
Aunque lo quise impedir
No dejo de pensar en ti 
Tratare de dejarte ir

Pre-coro

Pues lo hiciste
Me destruiste
Llorar no fue el remedio para dejar de pensarte
Guitarra 1 y 2
|-----------------|-----------------|----------------|---------------|
|-----------------|-----------------|----------------|---------------|
|--9--------------|--9--------------|--9-------------|--9------------|
|--9-99977--------|--9-99977--------|--9-99977-------|--9-99977--9999|
|--7-99977--------|--7-99977--------|--7-99977-------|--7-99977--9999|
|----77755--------|----77755--------|----77755-------|----77755--7777|

Coro

Regresar quedo en el olvido 
Seguire asi, como he estado desde q me fui
Recordando los momentos q perdi… sin ti
Guitarra 1 y 2
|-----------------|-----------------|----------------|---------------|
|-----------------|-----------------|----------------|---------------|
|--9999999999999--|--7777777777777--|----------------|---------------|
|--9999999999999--|--7777777777777--|--777777777777--|--99999999999--|
|--7777777777777--|--5555555555555--|--777777777777--|--99999999999--|
|-----------------|-----------------|--555555555555--|--77777777777--|

|-----------------|-----------------|----------------|---------------|
|-----------------|-----------------|----------------|---------------|
|-----------------|-----------------|----------------|---------------|
|--7777777777777--|--6666666666666--|--777777777777--|--99999999999--|
|--7777777777777--|--6666666666666--|--777777777777--|--99999999999--|
|--5555555555555--|--4444444444444--|--555555555555--|--77777777777--|

Bridge

Guitarra 1
|----------------|----------------|----------------|----------------|
|----------------|----------------|----------------|----------------|
|----------------|----------------|----------------|----------------|
|--9-9-9-9-9-9-9-|--7-7-7-7-7-7-7-|----------------|--------------99|
|-7-7-7-7-7-7-7--|-5-5-5-5-5-5-5--|--7-7-7-7-7-7-7-|--9-9-9-9-9-9-99|
|----------------|----------------|-5-5-5-5-5-5-5--|-7-7-7-7-7-7--77|

Guitarra 2
|-----------------|-----------------|----------------|---------------|
|-----------------|-----------------|----------------|---------------|
|--9999999999999--|--7777777777777--|----------------|---------------|
|--9999999999999--|--7777777777777--|--777777777777--|--99999999999--|
|--7777777777777--|--5555555555555--|--777777777777--|--99999999999--|
|-----------------|-----------------|--555555555555--|--77777777777--|

Pre-coro

Pues lo hiciste
Me destruiste
Llorar no fue el remedio para dejar de pensarte
Guitarra 1 y 2
|-----------------|-----------------|----------------|---------------|
|-----------------|-----------------|----------------|---------------|
|--9--------------|--9--------------|--9-------------|--9------------|
|--9-99977--------|--9-99977--------|--9-99977-------|--9-99977--9999|
|--7-99977--------|--7-99977--------|--7-99977-------|--7-99977--9999|
|----77755--------|----77755--------|----77755-------|----77755--7777|

Coro

Regresar quedo en el olvido 
Seguire asi, como he estado desde q me fui
Recordando los momentos q perdi… sin ti
Guitarra 1 y 2
|-----------------|-----------------|----------------|---------------|
|-----------------|-----------------|----------------|---------------|
|--9999999999999--|--7777777777777--|----------------|---------------|
|--9999999999999--|--7777777777777--|--777777777777--|--99999999999--|
|--7777777777777--|--5555555555555--|--777777777777--|--99999999999--|
|-----------------|-----------------|--555555555555--|--77777777777--|

|-----------------|-----------------|----------------|---------------|
|-----------------|-----------------|----------------|---------------|
|-----------------|-----------------|----------------|---------------|
|--7777777777777--|--6666666666666--|--777777777777--|--99999999999--|
|--7777777777777--|--6666666666666--|--777777777777--|--99999999999--|
|--5555555555555--|--4444444444444--|--555555555555--|--77777777777--|

Final

Guitarra 1
|----------------|----------------|----------------|----------------|
|----------------|----------------|----------------|----------------|
|----------------|----------------|----------------|----------------|
|--9-9-9-9-9-9-9-|--7-7-7-7-7-7-7-|----------------|--------------99|
|-7-7-7-7-7-7-7--|-5-5-5-5-5-5-5--|--7-7-7-7-7-7-7-|--9-9-9-9-9-9-99|
|----------------|----------------|-5-5-5-5-5-5-5--|-7-7-7-7-7-7--77|

Guitarra 2
|-----------------|-----------------|----------------|---------------|
|-----------------|-----------------|----------------|---------------|
|--9999999999999--|--7777777777777--|----------------|---------------|
|--9999999999999--|--7777777777777--|--777777777777--|--99999999999--|
|--7777777777777--|--5555555555555--|--777777777777--|--99999999999--|
|-----------------|-----------------|--555555555555--|--77777777777--|

www.myspace.com/duktil
Tap to rate this tab
 
# A B C D E F G H I J K L M N O P Q R S T U V W X Y Z