Song name
# A B C D E F G H I J K L M N O P Q R S T U V W X Y Z

Misc Unsigned Bands - Sand Spider - Sand Spider tab

Artist: Sand Spider
Album: Sand Spider Vol. I
Song: Sand Spider
Tuning: Drop D

Intro
-----------------------------------------------------------------|
-----------------------------------------------------------------|
---------------------------------------------------------x4------|
-----------------------------------------------------------------|
--0---------------0---------------0---------------3~-------------|
--0--0-0-0-0-0-0--0--0-0-0-0-0-0--0--0-0-0-0-0-0--3~-------------|
pm   - - - - - -     - - - - - -     - - - - - -


----------------------------------------------|
----------------------------------------------|
--------------------------------------x4------|
--0--x-x-x-x--0--x-x-x-x--3~------------------|
--0--x-x-x-x--0--x-x-x-x--3~------------------|
--0--x-x-x-x--0--x-x-x-x--3~------------------|


Verse
-----------------------------------------------------------------|
-----------------------------------------------------------------|
---------------------------------------------------------x4------|
-----------------------------------------------------------------|
--0---------------0---------------0---------------3~-------------|
--0--0-0-0-0-0-0--0--0-0-0-0-0-0--0--0-0-0-0-0-0--3~-------------|
pm   - - - - - -     - - - - - -     - - - - - -


Pre-Chorus
-----------------------------|
-----------------------------|
---------------------x8------|
-----------7/8\7-------------|
---0-0-0-0-7/8\7-------------|
---0-0-0-0-7/8\7-------------|
pm - - - -


Chorus
------------------------------------|
------------------------------------|
----------------------------x4------|
--0~----x-5~----3~----1~------------|
--0~----x-5~----3~----1~------------|
--0~----x-5~----3~----1~------------|


Verse 2
-------------------------------------------------------------------|
-------------------------------------------------------------------|
-----------------------------------------------------------x4------|
-------------------------------------------------------------------|
--0---------------0---------------0---------------3~--5~-----------|
--0--0-0-0-0-0-0--0--0-0-0-0-0-0--0--0-0-0-0-0-0--3~--5~-----------|
pm   - - - - - -     - - - - - -     - - - - - -


---------|
---------|
---------|
--5~~----|
--5~~----|
--5~~----|


Interlude
---------------------------------------|
---------------------------------------|
-------------------------------x2------|
---------------------------------------|
-12-12-10-12-10-8-8-10-8-7-7-----------|
-12-12-10-12-10-8-8-10-8-7-7-----------|


-------------------------------------|
-------------------------------------|
-------------------------------------|
-------------------------------------|
---7-7-7-7-7-7-7-7-7-7-7-7-7-7-7-7---|
---7-7-7-7-7-7-7-7-7-7-7-7-7-7-7-7---|
pm - - - - - - - - - - - - - - - -


extended chorus
------------------------------------|
------------------------------------|
----------------------------x4------|
--0~----x-5~----3~----1~------------|
--0~----x-5~----3~----1~------------|
--0~----x-5~----3~----1~------------|

slight break

------------------------------------------------------------------|
------------------------------------------------------------------|
----14--14--14--14-14-14-14-14-14-14-14-14-14-14-14-14-14-14-14---|
-----x---x---x---x--x--x--x--x--x--x--x--x--x--x--x--x--x--x--x---|
----12--12--12--12-12-12-12-12-12-12-12-12-12-12-12-12-12-12-12---|
------------------------------------------------------------------|
pm               -  -  -  -  -  -  -  -  -  -  -  -  -  -  -  -


Outro
-------|
-------|
-------|
---0---|
---0---|
---0---|
pm -
Tap to rate this tab
# A B C D E F G H I J K L M N O P Q R S T U V W X Y Z