Song name
# A B C D E F G H I J K L M N O P Q R S T U V W X Y Z

Misc Unsigned Bands - Noisy Box - Hoy No tab

http://www.noisybox.tk

Esta es la primera cancion.
Toda la cancion va con distorción.

/:sLIDE
~:Let Ring
Intro/Verso
E|-------------------------------------------------------------|
B|-------------------------------------------------------------|
G|---------7-----7---------------------------------------------|(X6)
D|-----5-----5--------7-----7-----7/9--------9---------5-------|
A|-----------------5-----5-----5---------7--------3------------|
E|-------------------------------------------------------------|

PRE CORO

E|-------------------------------------------------------------|
B|-------------------------------------------------------------|
G|---7----------------------------7----------------------------|
D|---5-----7-----9-----5----------5-----7-----9-----5----------|
A|---------5-----7-----3----------------5-----7-----3----------|
E|-------------------------------------------------------------|

CORO

E|----------------------------------------------------------------------------------|
B|----------------------------------------------------------------------------------|
G|---7-7-7--7-7-7-7-7-7-7-7---------------------------------------------------------|
D|---5-5-5--5-5-5-5-5-5-5-5-7-7-7--7-7-7-7-7-7-7-7--9-9-9--9-9-9-9-9-9-9-9----------|
A|--------------------------5-5-5--5-5-5-5-5-5-5-5--7-7-7--7-7-7-7-7-7-7-7----------|
E|----------------------------------------------------------------------------------|

  ---------------------------------|
  ---------------------------------|
  ---------------------------------| (X4)
  --5~-----------------------------|
  --3~-----------------------------|
  ---------------------------------|

VERSO
E|-------------------------------------------------------------|
B|-------------------------------------------------------------|
G|---------7-----7---------------------------------------------|(X4)
D|-----5-----5--------7-----7-----7/9--------9---------5-------|
A|-----------------5-----5-----5---------7--------3------------|
E|-------------------------------------------------------------|

PRE CORO

E|-------------------------------------------------------------|
B|-------------------------------------------------------------|
G|---7----------------------------7----------------------------|
D|---5-----7-----9-----5----------5-----7-----9-----5----------|
A|---------5-----7-----3----------------5-----7-----3----------|
E|-------------------------------------------------------------|

CORO

E|----------------------------------------------------------------------------------|
B|----------------------------------------------------------------------------------|
G|---7-7-7--7-7-7-7-7-7-7-7---------------------------------------------------------|
D|---5-5-5--5-5-5-5-5-5-5-5-7-7-7--7-7-7-7-7-7-7-7--9-9-9--9-9-9-9-9-9-9-9----------|
A|--------------------------5-5-5--5-5-5-5-5-5-5-5--7-7-7--7-7-7-7-7-7-7-7----------|
E|----------------------------------------------------------------------------------|

  ---------------------------------|
  ---------------------------------|
  ---------------------------------| (X4)
  --5~-----------------------------|
  --3~-----------------------------|
  ---------------------------------|

SOLO

E|------------------------------------------------------------------------------------|
B|------------------------------------------------------------------------------------|
G|----------------------------------------------------------13-15-15/17-17ph----------|
D|---5-5/7-7/9-9/11-11/13-13/15-15--15---15---15-------13-15--------------------------|
A|---3-3/5-5/7-7/9---9/11-11/13-13-----13---13---13--15-------------------------------|
E|------------------------------------------------------------------------------------|

E|------------------------------------------------------------------------------------|
B|------------------------------------------------------------------------------------|
G|---17--15----15---------------------------------------------------------------------|
D|----------17----17-16-15-13--13-13-13/15--13-13-13/15--13-13-13/15--15-14-13--------|
A|------------------------------------------------------------------------------------|
E|------------------------------------------------------------------------------------|

E|----------------------------------------------------------------------------------------------------|
B|----------------------------------------------------------------------------------------------------|
G|----------------------------------------------------------------------------------------------------|
D|---15-15-15/17--15-15-15/17--15-15-15/17--17-16-15--------------------------------------------------|
A|---------------------------------------------------15-15-15/17--15-15-15/17--15-15-15/17--17-16-15--|
E|----------------------------------------------------------------------------------------------------|

E|----------------------------------------------------------------------------------------------------------|
B|----------------------------------------------------------------------------------------------------------|
G|----------------------------------------------------------------------------------------------------------|
D|--------------------------------------------------13-13-13/15--13-13-13/15--13-13-13/15--15--14--13-13phph|
A|---13-13-13/15--13-13-13/15--13-13-13/15--15-14-13--------------------------------------------------------|
E|----------------------------------------------------------------------------------------------------------|

CORO

E|----------------------------------------------------------------------------------|
B|----------------------------------------------------------------------------------|
G|---7-7-7--7-7-7-7-7-7-7-7---------------------------------------------------------|
D|---5-5-5--5-5-5-5-5-5-5-5-7-7-7--7-7-7-7-7-7-7-7--9-9-9--9-9-9-9-9-9-9-9----------|
A|--------------------------5-5-5--5-5-5-5-5-5-5-5--7-7-7--7-7-7-7-7-7-7-7----------|
E|----------------------------------------------------------------------------------|

  ---------------------------------|
  ---------------------------------|
  ---------------------------------| (X4)
  --5~-----------------------------|
  --3~-----------------------------|
  ---------------------------------|
PRE CORO

E|-------------------------------------------------------------|
B|-------------------------------------------------------------|
G|---7----------------------------7----------------------------|
D|---5-----7-----9-----5----------5-----7-----9-----5----------|
A|---------5-----7-----3----------------5-----7-----3----------|
E|-------------------------------------------------------------|

CORO

E|----------------------------------------------------------------------------------|
B|----------------------------------------------------------------------------------|
G|---7-7-7--7-7-7-7-7-7-7-7---------------------------------------------------------|
D|---5-5-5--5-5-5-5-5-5-5-5-7-7-7--7-7-7-7-7-7-7-7--9-9-9--9-9-9-9-9-9-9-9----------|
A|--------------------------5-5-5--5-5-5-5-5-5-5-5--7-7-7--7-7-7-7-7-7-7-7----------|
E|----------------------------------------------------------------------------------|

  ---------------------------------|
  ---------------------------------|
  ---------------------------------| (X4)
  --5~-----------------------------|
  --3~-----------------------------|
  ---------------------------------|

Letra

Verso 1

Hoy nuestros dias van a cambiar
No se si sea para bien o mal
Pero, no temas siempre
conmigo vas a contar

(pre coro)

coro1

Y hoy no hay nadie q me pueda amar
Y hoy no hay nadie q me ayude a olvidar
A la persona que ayer no supe valorar
Hoy no

Verso 2

Hoy nadie me vuelve a sonreir
Los dias no pasan si estoy sin ti
No quiero nada mas que apreder
A vivir, sin ti

(pre coro)

Coro 2

Y hoy no hay nadie que me pueda querer
Y hoy no hay nadie de quien pueda aprender
Olvidar los besos que quedaron en el ayer
Hoy no, hoy no

(solo)

coro1

Y hoy no hay nadie q me pueda amar
Y hoy no hay nadie q me ayude a olvidar
A la persona que ayer no supe valorar
Hoy no

(pre coro)

Coro 2

Y hoy no hay nadie que me pueda querer
Y hoy no hay nadie de quien pueda aprender
Olvidar los besos que quedaron en el ayer
Hoy no, hoy no
Tap to rate this tab
# A B C D E F G H I J K L M N O P Q R S T U V W X Y Z