Song name
# A B C D E F G H I J K L M N O P Q R S T U V W X Y Z

Misc Unsigned Bands - Noisy Box - Ensalada De Ratas tab

http://www.noisybox.tk

Segundo sencillo

x= Palm Mute
/= Slide
~= Let Ring

Intro:
E|-------------------------------------------------------------|
B|-------------------------------------------------------------|
G|-------------------------------------------------------------|(X4)
D|--999999-999999--444444-666666-------------------------------|
A|--999999-999999--444444-666666-------------------------------|
E|--777777-777777--222222-444444-------------------------------|

Verso:
E|-------------------------------------------------------------|
B|-------------------------------------------------------------|
G|-------------------------------------------------------------|(X2)
D|--5-xxxx-----------------------------------------------------|
A|--3-xxxx--5-xxxx--7-xxxx--3-xxxx---0-------------------------|
E|----------3-xxxx--5-xxxx--1-xxxx---0-------------------------|

E|-------------------------------------------------------------|
B|-------------------------------------------------------------|
G|--5-5-5-5-x--------------------------------------------------|(X2)
D|--5-5-5-5-x-5-5-5-5-x-7-7-7-7-x-3-3-3-3----------------------|
A|--3-3-3-3-x-5-5-5-5-x-7-7-7-7-x-3-3-3-3----------------------|
E|------------3-3-3-3-x-5-5-5-5-x-1-1-1-1----------------------|

Chourus 2, strum change x2, strum change x4:
E|-------------------------------------------------------------|
B|-------------------------------------------------------------|
G|--7-7-7-7----------------------------------------------------|(X8)
D|--7-7-7-7--7-7-7-7/9-9-9-9---5-5-5-5-5-5-5-------------------|
A|--5-5-5-5--7-7-7-7/9-9-9-9---5-5-5-5-5-5-5-------------------|
E|-----------5-5-5-5/7-7-7-7---3-3-3-3-3-3-3-------------------|
Verso:
E|-------------------------------------------------------------|
B|-------------------------------------------------------------|
G|-------------------------------------------------------------|(X2)
D|--5-xxxx-----------------------------------------------------|
A|--3-xxxx--5-xxxx--7-xxxx--3-xxxx---0-------------------------|
E|----------3-xxxx--5-xxxx--1-xxxx---0-------------------------|

E|-------------------------------------------------------------|
B|-------------------------------------------------------------|
G|--5-5-5-5-x--------------------------------------------------|(X2)
D|--5-5-5-5-x-5-5-5-5-x-7-7-7-7-x-3-3-3-3----------------------|
A|--3-3-3-3-x-5-5-5-5-x-7-7-7-7-x-3-3-3-3----------------------|
E|------------3-3-3-3-x-5-5-5-5-x-1-1-1-1----------------------|

Chourus 2, strum change x2, strum change x4:
E|-------------------------------------------------------------|
B|-------------------------------------------------------------|
G|--7-7-7-7----------------------------------------------------|(X8)
D|--7-7-7-7--7-7-7-7/9-9-9-9---5-5-5-5-5-5-5-------------------|
A|--5-5-5-5--7-7-7-7/9-9-9-9---5-5-5-5-5-5-5-------------------|
E|-----------5-5-5-5/7-7-7-7---3-3-3-3-3-3-3-------------------|

Interlude:
E|-------------------------------------------------------------|
B|-------------------------------------------------------------|
G|-------------7-----------------------------------------------|(X1)
D|--7----------7-----------7-----------9----------5/7----------|
A|--7----------5-----------7-----------9----------5/7----------|
E|--5----------------------5-----------7----------3/5----------|

Chourus 2, strum change x2, strum change x4:
E|-------------------------------------------------------------|
B|-------------------------------------------------------------|
G|--7-7-7-7----------------------------------------------------|(X8)
D|--7-7-7-7--7-7-7-7/9-9-9-9---5-5-5-5-5-5-5-------------------|
A|--5-5-5-5--7-7-7-7/9-9-9-9---5-5-5-5-5-5-5-------------------|
E|-----------5-5-5-5/7-7-7-7---3-3-3-3-3-3-3-------------------|

outro:
E|----------|
B|----------|
G|--7~------|
D|--7~------|
A|--5~------|
E|----------|

Tap to rate this tab
# A B C D E F G H I J K L M N O P Q R S T U V W X Y Z