Song name
# A B C D E F G H I J K L M N O P Q R S T U V W X Y Z

Misc Unsigned Bands - Fretboard Dreams - Spanish Rip-off tab

Tabbed by:Jotang
Email:jotizang@hotmail.com
Legend: w= fast bend up & down
Tuning:Standard

e|---------------------------------------------------------------------------|
B|---------------------------------------------------------------------------|
G|---------------------------------------------------------------------------|
D|----------0------------0---0--0-------------------------0------------0---0-|
A|---2---2--------2---2------------3--2--3w--------2---2--------2---2--------|
E|-3---3--------3---3----------------------------3---3--------3---3----------|

e|---------------------------------------------------------------------------|
B|---------------------------------------------------------------------------|
G|--------------------------0------------0---0--0---------------2------------|
D|-0-----------------2---2--------2---2------------3--2--3w---3---3----2-----|
A|----3--2--0------3---3--------3---3--------------------------------3---3---|
E|---------------------------------------------------------------------------|

e|---------------------------------------------------------------------------|
B|---------------------------------------------------------------------------|
G|-----------2---------------------------------------------------------------|
D|---------3---3---2---------------------------------------------------------|
A|--2--2w--------3---3----2----2w--------------------------------------------|
E|3--3------------------3---3------------------------------------------------|
Tap to rate this tab
 
# A B C D E F G H I J K L M N O P Q R S T U V W X Y Z