Song name
# A B C D E F G H I J K L M N O P Q R S T U V W X Y Z

Misc Unsigned Bands - Hoist - There There tab

Hoist - There There

Standard tuning

Intro

[-7-4-----5-4---------]
[-----7-5-----7-5-----]
[-----------------6---]4x
[---------------------]
[---------------------]
[---------------------]

[-7-4-----5-4---------]
[-----7-5-----7-5-----]
[------------------4--]1x
[---------------------]
[---------------------]
[---------------------]

[-----------------]
[-----------------]
[-6--6-6--6-6-6---]
[-----------------]
[-----------------]
[-----------------]

Distorted
[-------------------------------------------------]
[-------------------------------------------------]
[-------------------------------------------------]
[-9-7-7/9-9-9/11-11-11/9-9-9/7-7-7--7-7-9-9/11/7--]
[-x-x-x/x-x-x/x--x--x-/x-x-x/x-x-x--x-x-x-x/x-/x--]
[-7-5-5/7-7-7/9--9--9-/7-7-7/5-5-5--5-5-7-7/9-/5--]

[-----------------]    [---------------]
[-5^0^4-5-0-0000--]    [-7-0-0--7-0-0--]
[-----------------]3x  [---------------]1x
[-----------------]    [---------------]
[-----------------]    [---------------]
[-----------------]    [---------------]

Verses - No Guitar (Just keyboard and vocals).


Lead Break                                N.H.
[-7-4-----5-4---------|---------5^4-----7--7----]
[-----7-5-----7-5-----|-----7^5-----7^5---------]
[-----------------6---|-6^4---------------------]
[---------------------|-------------------------]
[---------------------|-------------------------]
[---------------------|--------------------7----]

Solo - Sorry, too hard to hear, just impovise

Chords   Figure out the strumming for yourself
[-----|----|----|----|----|----|----|----]
[-10--|-9--|-8--|-7--|-6--|-5--|-4--|-3--]
[-9---|-9--|-7--|-7--|-5--|-5--|-3--|-3--]
[-7---|-7--|-5--|-5--|-3--|-3--|-1--|-1--]
[-----|----|----|----|----|----|----|----]
[-----|----|----|----|----|----|----|----]

After that comes some weird effects
and noises that I can't make out.

Lead Back into song
[4^5-4-------------|-------|---7------|-4^5-4-------------------]
[------5^7-7-------|-------|-7b--7b-5-|-------7-5-7-5-----------]
[------------4-4^6-|-4^6-4-|----------|---------------4^6^4-4^6-]
[------------------|-4^6-4-|----------|-------------------------]
[------------------|-------|----------|-------------------------]
[------------------|-------|----------|-------------------------]


That'sretty much it

Check out www.purevolume.com/hoist
Tap to rate this tab
# A B C D E F G H I J K L M N O P Q R S T U V W X Y Z