Song name
# A B C D E F G H I J K L M N O P Q R S T U V W X Y Z

Misc Unsigned Bands - Daytime Television - Get Back tab

Ok i'm not claiming this is "our" song but we cover this in our own way and this is how
we play it.  Of course this is still the classic Beatles tune.  Anyone we've played it
for has loved it.
                                                --Ryan

Play in Dropped-D tuning with heavy distortion.
Intro
|---------------------------------------------------------------|
|---------------------------------------------------------------|
|---------------------------------------------------------------|
|---7---7---7---7---7---7---7---7---7---7---7---7---7---7-5---0-|
|-7---7---7---7---7---7---7---7---7---7---7---7---7---7---5---0-|
|-7---7---7---7---7---7---7---7---7---7---7---7---7---7---5---0-|
PM.   .   .   .   .   .   .   .   .   .   .   .   .   .
Verse & Chorus
|---------------------------------------------------------------|
|---------------------------------------------------------------|
|---------------------------------------------------------------|
|---7---7---7---7---7---7---7---7---0---0---0---0---7---7-5---0-|
|-7---7---7---7---7---7---7---7---0---0---0---0---7---7---5---0-|
|-7---7---7---7---7---7---7---7---0---0---0---0---7---7---5---0-|
PM.   .   .   .   .   .   .   .   .   .   .   .   .   .
Guitar Solos 
I usually start w/ this and then improvise each time
|-------------------------12--------------------------------------|
|-10-10--10--12-10--12b14----14r12-10-----------------------------|
|----------------------------------------------7-5---5------------|
|------------------------------------------7-9-----7---7v---5---0-|
|---------------------------------------/9------------------5---0-|
|-----------------------------------------------------------5---0-|
That's pretty much it. Just jam the song out for as long as you want & end with this.
|-------------------------|
|----7---5---3---1---1----|
|----------------------2v-|
|-/7---5---4---2----------|
|------------------3------|
|-------------------------|
Tap to rate this tab
 
# A B C D E F G H I J K L M N O P Q R S T U V W X Y Z