Song name
# A B C D E F G H I J K L M N O P Q R S T U V W X Y Z

Misc Unsigned Bands - A Shattered Era - Into You tab

-------------------------------------------------------------------------------
			    Into You - A Shattered Era
-------------------------------------------------------------------------------
Tabbed by: Cody
Email: hippiboy182@aol.com

Tuning: Standard EADGBE

  Intro-
e|-----------------------------------------------------------------|
B|-----------------------------------------------------------------|
G|-----------------------------------------------------------------|  x2
D|666-----------44--666-----------4--------------------------------|
A|444-666-777-2-22--444-666-777-2-2--------------------------------|
E|----444-555-0---------444-555-0----------------------------------|

  Riff-
e|-----------------------------------------------------------------|
B|-----------------------------------------------------------------|
G|-----------------------------------------------------------------|
D|666-----------4-666-----------4~---------------------------------| x1
A|444-666-777-2-2-444-666-777-2~2~---------------------------------|
E|----444-555-0-------444-555-0~-----------------------------------|

  First Verse-
e|-----------------------------------------------------------------|
B|-----------------------------------------------------------------|
G|-----------------------------------------------------------------| cont.
D|6-66666-66666-66666----------------------------------------------|
A|4-44444-44444-44444-6-66666-66666-66666-7-77777-77777-77777------|
E|--------------------4-44444-44444-44444-5-55555-55555-55555------|

e|-------------------------------------|
B|-------------------------------------|
G|-------------------------------------| x6
D|----------------4-44444-4-44444------|
A|2-22222-2-22222-2-22222-2-22222------|
E|0-00000-0-00000----------------------|

  Riff 2-
e|---------------------------------------------------------------------|
B|---------------------------------------------------------------------|
G|---------------------------------------------------------------------| cont.
D|666-666-66-666-666-66------------------------------------------------|
A|444-444-44-444-444-44-666-666-66-666-666-66-777-777-77-777-777-77----|
E|----------------------444-444-44-444-444-44-555-555-55-555-555-55----|

e|-----------------------------------------------|
B|-----------------------------------------------|
G|-----------------------------------------------| x1
D|----------------------444-444-44-444-444-44~---|
A|222-222-22-222-222-22-222-222-22-222-222-22~---|
E|000-000-00-000-000-00--------------------------|

  Second Verse-
e|----------------------------------------------------------|
B|----------------------------------------------------------|
G|----------------------------------------------------------| x6
D|-------6-----------------4--------------------------------|
A|44444444--------2-22222222--------7-----------------------|
E|---------00000000----------55555555-----------------------|
  .......  .......  .......  .......

       -Bass Solo-

  Guitar Solo-
e|----------------------------------------------------------|
B|----------------------------------------------------------|
G|----------------------------------------------------------| x4
D|444-444-44-5h4-------------444-444-44-5h4-----------------|
A|---------------555-555-7-4----------------555-555-4-2-----|
E|----------------------------------------------------------|

  Order of Song

   Intro       x2
   Riff        x1
   1st Verse   x6
   Riff 2      x1
   2nd Verse   x6
   Guitar Solo x4
   Intro       x2
   1st Verse   x6
   2nd Verse   x6
    then let 2nd verse at the end of song ring out


| h  hammer-on
| p  pull-off
| ~  vibrato
| .  Palm mute
===============================================================================
Tap to rate this tab
# A B C D E F G H I J K L M N O P Q R S T U V W X Y Z