Song name
# A B C D E F G H I J K L M N O P Q R S T U V W X Y Z

Misc Unsigned Bands - Edge Of Reason - You Brought This On Yourself tab

Intro

------------------------------------------------------------------------------|
------------------------------------------------------------------------------|
------------------------------------------------------------------------------|
--------------------------------------------9-9-9-9-9-9-9-9-------------------|
--11-11-11-11-11-11-11-11--7-7-7-7-7-7-7-7--7-7-7-7-7-7-7-7--9-9-9-9-9-9-9-9--|
--9--9--9--9--9--9--9--9---5-5-5-5-5-5-5-5-------------------7-7-7-7-7-7-7-7--|


Verse P.M

-----------------------------------------------------------------------------|
-----------------------------------------------------------------------------|
-----------------------------------------------------------------------------|
-----------------------------------------------------------------------------|
--8-8-8-8-8-8-8-8--4-4-4-4-4-4-4-4--11-11-11-11-11-11-11-11--6-6-6-6-6-6-6-6-|
--6-6-6-6-6-6-6-6--2-2-2-2-2-2-2-2--9--9--9--9--9--9--9--9---4-4-4-4-4-4-4-4-|


Chorus is the Same as Intro just not palm muted.....


Bridge:

-----------------------------------------------------------------------------|
-----------------------------------------------------------------------------|
-----------------------------------------------------------------------------|
-----------------------------------------------------------------------------|
--11-11-11-11---11-11-11-11--9-9-9-9--7-7-7-7--7-7-7-7--9-9-9-9--11-11-11-11-|
--9--9--9--9----9--9--9--9---7-7-7-7--5-5-5-5--5-5-5-5--7-7-7-7--9--9--9--9--|

-----------------------------------------------------------------------------|
-----------------------------------------------------------------------------|
-----------------------------------------------------------------------------|
-----------------------------------------------------------------------------|
--11-11-11-11-11-11-11-11--9-9-9-9-9-9-9-9--7-7-7-7-7-7-7-7-7-7-7-7-7-7-7-7--|
--9--9--9--9--9--9--9--9---7-7-7-7-7-7-7-7--5-5-5-5-5-5-5-5-5-5-5-5-5-5-5-5--|

harmonics,,,

end on chorus
Tap to rate this tab
# A B C D E F G H I J K L M N O P Q R S T U V W X Y Z