Song name
# A B C D E F G H I J K L M N O P Q R S T U V W X Y Z

Misc Unsigned Bands - Eight Minutes Upside Down - On The Rocks tab

Artist: Eight Minutes Upside Down
Song:   On the Rocks

This is a great band with an amazing song.  They're not very big
so it was obvious I had to tab it myself.

Rhythm may be a little off.

Intro:  2x
e|--------------------------------------------------------------------|
B|--------------------------------------------------------------------|
G|-------------------0-0-0-0-0-0--------------------------------------|
D|--0-0-0-0-0-0-0-0-5-5-4-4-2-2-5-4-2-0-------------------------------|
A|-5-5-4-4-2-2-0-0----------------------------------------------------|
E|--------------------------------------------------------------------|

2x
e|--------------------------------------------------------------------|
B|--------------------------------------------------------------------|
G|-7-77-6-66-6-6-4-44-2-22-2-2----------------------------------------|
D|-7-77-6-66-6-6-4-44-2-22-2-2-5-55-4-44-4-4-2-22-7-77-7-7------------|
A|-5-55-4-44-4-4-2-22-0-00-0-0-5-55-4-44-4-4-2-22-7-77-7-7------------|
E|-----------------------------3-33-2-22-2-2-0-00-5-55-5-5------------|

Verse:
1x
e|--------------------------------------------------------------------|
B|--------------------------------------------------------------------|
G|-7~-----6~------4~-----2~-------------------------------------------|
D|-7~-----6~------4~-----2~-------------------------------------------|
A|-5~-----4~------2~-----0~-------------------------------------------|
E|--------------------------------------------------------------------|

4x
e|--------------------------------------------------------------------|
B|--------------------------------------------------------------------|
G|-7-77-77-6-66-66-4-44-44-2-22-22------------------------------------|
D|-7-77-77-6-66-66-4-44-44-2-22-22------------------------------------|
A|-5-55-55-4-44-44-2-22-22-0-00-00------------------------------------|
E|--------------------------------------------------------------------|

Chorus:
4x
e|--------------------------------------------------------------------|
B|--------------------------------------------------------------------|
G|-7--7-7--------4--4-4-2--2-2----------------------------------------|
D|-7--7-7-5--5-5-4--4-4-2--2-2----------------------------------------|
A|-5--5-5-5--5-5-2--2-2-0--0-0----------------------------------------|
E|--------3--3-3------------------------------------------------------|

Verse:
1x
e|--------------------------------------------------------------------|
B|--------------------------------------------------------------------|
G|-7~-----6~------4~-----2~-------------------------------------------|
D|-7~-----6~------4~-----2~-------------------------------------------|
A|-5~-----4~------2~-----0~-------------------------------------------|
E|--------------------------------------------------------------------|

4x
e|--------------------------------------------------------------------|
B|--------------------------------------------------------------------|
G|-7-77-77-6-66-66-4-44-44-2-22-22------------------------------------|
D|-7-77-77-6-66-66-4-44-44-2-22-22------------------------------------|
A|-5-55-55-4-44-44-2-22-22-0-00-00------------------------------------|
E|--------------------------------------------------------------------|

Chorus:
4x
e|--------------------------------------------------------------------|
B|--------------------------------------------------------------------|
G|-7--7-7--------4--4-4-2--2-2----------------------------------------|
D|-7--7-7-5--5-5-4--4-4-2--2-2----------------------------------------|
A|-5--5-5-5--5-5-2--2-2-0--0-0----------------------------------------|
E|--------3--3-3------------------------------------------------------|

Bridge:
6x                                  Strum repeatedly
e|---------------------------------|----------------------------------|
B|---------------------------------|----------------------------------|
G|-7-77-77-77-1211-9-99-99-99-1211-|-7--------------------------------|
D|-7-77-77-77-1211-9-99-99-99-1211-|-7--------------------------------|
A|-5-55-55-55-10-9-7-77-77-77-10-9-|-5--------------------------------|
E|---------------------------------|----------------------------------|

Chorus:
4x
e|--------------------------------------------------------------------|
B|--------------------------------------------------------------------|
G|-7--7-7--------4--4-4-2--2-2----------------------------------------|
D|-7--7-7-5--5-5-4--4-4-2--2-2----------------------------------------|
A|-5--5-5-5--5-5-2--2-2-0--0-0----------------------------------------|
E|--------3--3-3------------------------------------------------------|

End on
e|--------------------------------------------------------------------|
B|--------------------------------------------------------------------|
G|-7~-----------------------------------------------------------------|
D|-7~-----------------------------------------------------------------|
A|-5~-----------------------------------------------------------------|
E|--------------------------------------------------------------------|
Tap to rate this tab
 
# A B C D E F G H I J K L M N O P Q R S T U V W X Y Z