Song name
# A B C D E F G H I J K L M N O P Q R S T U V W X Y Z

Misc Unsigned Bands - Cant Say No - You And Your Smile tab

-------------------------------------------------------------------------------
			     you and your smile - can't say no
-------------------------------------------------------------------------------
Tabbed by: flemmers
Email: flemmersj@hotmail.com

Tuning: standard

              Intro
e|---------------------------------------------------------------------------|
B|---------------------------------------------------------------------------|
G|------------9--------------9---------------9-------------9-----------------|
D|--------9------9-------9-------9-------9-------9------9------9-------------|
A|----7--------------7----------------6--------------6-----------------------|
E|---------------------------------------------------------------------------|

e|---------------------------------------------------------------------------|
B|---------------------------------------------------------------------------|
G|--------9----------------9-----------------9----------------9---------9----|
D|-----9-----9--------9-------9----------9-------9--------9--------9---------|
A|--0-------------0----------------------------------------------------------|
E|----------------------------------7------------------7---------------------|
                   verse - x2
e|---------------------------------------------------------------------------|
B|---------------------------------------------------------------------------|
G|------------9------------------9-------------------9----------------9------|
D|--------9------9----------9-------9------------9-------9--------9-------9--|
A|---7-------------------6------------------0--------------------------------|
E|-------------------------------------------------------------7-------------|
                  chorus - x2 same as intro but played twice as fast
e|---------------------------------------------------------------------------|
B|---------------------------------------------------------------------------|
G|------------9--------------9---------------9-------------9-----------------|
D|--------9------9-------9-------9-------9-------9------9------9-------------|
A|----7--------------7----------------6--------------6-----------------------|
E|---------------------------------------------------------------------------|

e|---------------------------------------------------------------------------|
B|---------------------------------------------------------------------------|
G|--------9----------------9-----------------9----------------9---------9----|
D|-----9-----9--------9-------9----------9-------9--------9--------9---------|
A|--0-------------0----------------------------------------------------------|
E|----------------------------------7------------------7---------------------|
e|---------------------------------------------------------------------------|
          solo - x2
e|---------------------------------------------------------------------------|
B|---------------------------------------------------------------------------|
G|------------9------------------9-------------------9----------------9------|
D|--------9------9----------9-------9------------9-------9--------9-------9--|
A|---7-------------------6------------------0--------------------------------|
E|-------------------------------------------------------------7-------------|
    outro - x2

e|---------------------------------------------------------------------------|
B|---------------------------------------------------------------------------|
G|------------9------------------9-------------------9----------------9------|
D|--------9------9----------9-------9------------9-------9--------9-------9--|
A|---7-------------------6------------------0--------------------------------|
E|-------------------------------------------------------------7-------------|

end on  an E.

song order -
intro
verse 1
chorus
verse 2
chorus
solo - play the verse in the background
chorus
outro
=============================================================================== thats all.
Tap to rate this tab
# A B C D E F G H I J K L M N O P Q R S T U V W X Y Z