Guitaretab - guitar tabs
Song name
# A B C D E F G H I J K L M N O P Q R S T U V W X Y Z

Misc Unsigned Bands - My Awesome Compilation - You Need Discipline tab

----------------------------------------------------------------------------
	    YOU NEED DISCIPLINE  - MY AWESOME COMPILATION
----------------------------------------------------------------------------
this is a quality tune from a class band...
check em out at www.myawesomecompilation.com

Tuning: DROP D

 /  slide up
 \  slide down
 h  hammer-on
 p  pull-off
 ~  vibrato
 +  harmonic
 x  Mute note

main- this is a cross of the guitar parts methinks
|---------------------------------------------------------------------------|
|---------------------------------------------------------------------------|
|---7-7-7-7-----------------------------------------------------------------|
|---------------------------------------------------------------------------|
|---5-5-5-5--0-2-0----------------------------------------------------------|
|---0-0-0-0--0-2-0----------------------------------------------------------|

verse
|-----------------------------------------------------------------------------|
|-----------------------------------------------------------------------------|
|-----------------------------------------------------------------------------|
|-----7-7-7-7-7-7-7-7-7-------------------------------------------------------|
|-----5-5-5-5-5-5-5-5-5--5-5-5-5-5-5-5-5--------------------------------------|
|------------------------5-5-5-5-5-5-5-5--------------------------------------|
[ Tab from: http://www.guitaretab.com/m/misc-unsigned-bands/69333.html ]
bridge
|---------------------------------------------------------------------------|
|---------------------------------------------------------------------------|
|--7-7-7--9-9-9--11-11-11-12--12--12--14--14--14----------------------------|
|---------------------------------------------------------------------------|
|--5-5-5--7-7-7--9--9--9--10--10--10--12--12--12----------------------------|
|---------------------------------------------------------------------------|

|---------------------------------------------------------------------------|
|---------------------------------------------------------------------------|
|---------------------------------------------------------------------------|
|---------------------------------------------------------------------------|
|---0-0--5-5-5-5-5-5-5-5-5---0-0-0-0-0-0-0-0-0--2-2-2-2-2-2-2-2-------------|
|---0-0--5-5-5-5-5-5-5-5-5---0-0-0-0-0-0-0-0-0--2-2-2-2-2-2-2-2-------------|

middle
|---------------------------------------------------------------------------|
|------------10--7-------------10--7----------------------------------------|
|------------------9-----------------9--------------------------------------|
|---7-9-7-7----------7-7-9-7-7----------------------------------------------|
|---------------------------------------------------------------------------|
|---------------------------------------------------------------------------|

|---------------------------------------------------------------------------|
|---------------------------------------------------------------------------|
|---------------------------------------------------------------------------|
|--7-7-7-7-7-7-7-7-7--------------------------------------------------------|
|--5-5-5-5-5-5-5-5-5--7-7-7-7-7-7-7-7-7--5-5-5-5-5-5-5-5-5--0-0-0-0-0-0-0-0-|
|---------------------7-7-7-7-7-7-7-7-7--5-5-5-5-5-5-5-5-5--0-0-0-0-0-0-0-0-|

============================================================================
Related for My Awesome Compilation - You Need Discipline tab
Advertisement will be closed in 10 seconds