Song name
# A B C D E F G H I J K L M N O P Q R S T U V W X Y Z

Misc Unsigned Bands - Tube Of Glue - 13 Strokes tab

^=Bend up
\=Slide down
H=hammer on
P=Pull off
e------------------------------------------------------------------------|
H------------------8--------------8---11^--8-10--------8-8-7-8-----------|
G---9--7---9-7-9------9-7-9-7-9------------------7-7---------------------|
D-----9------------------------------------------------------------------|
A------------------------------------------------------------------------|
E------------------------------------------------------------------------|

e------------------------------------------------------------------------|
H------------------8--------------8---8-8-10-8-7\------------------------|
G-----9--7---9-7-9------9-7-9-7-9----------------------------------------|
D------9-----------------------------------------------------------------|
A------------------------------------------------------------------------|
E------------------------------------------------------------------------|

e-------------------------------------------------------------------------|
H---12---12---12---12----8-H10-P8-----8-----------------------------------|
G------9----9----9----9-----------9-----9-7-9--7-4-7----------------------|
D--------------------------------------------------9-7-5-7----------------| (runterziehen)
A-------------------------------------------------------------------------|
E-------------------------------------------------------------------------|

e-------------------------------------------------------------------------|
H---12---12---12---12----8-H10-P8-----8-----------------------------------|
G------9----9----9----9-----------9-----9-7-9--7-4-7----------------------|
D--------------------------------------------------9-7-5-7----------------| (runterziehen)
A-------------------------------------------------------------------------|
E-------------------------------------------------------------------------|
Tap to rate this tab
# A B C D E F G H I J K L M N O P Q R S T U V W X Y Z