Song name
# A B C D E F G H I J K L M N O P Q R S T U V W X Y Z

Misc Unsigned Bands - Frequency - Life Of Hate And Death tab

Frequency
Two of our songs Art of life and death and This life of hate
both songs are D tuned

The Art of Love and Death

intro
e|------------------------------|
b|------------------------------|
g|------------------------------|
d|-0-1-3-0-2-2-2-2--------------|
a|-0-1-3-0-2-2-2-2--------------|
d|-0-1-3-0-2-2-2-2--------------|

verse
e|-----------------------------|
b|-----------------------------|
g|-----------------------------|
d|-0-0-1-3-0-2-2-2-2-----------|   x6
a|-0-0-1-3-0-2-2-2-2-----------|
d|-0-0-1-3-0-2-2-2-2-----------|

chorus
e|------------------------------------------------|
b|------------------------------------------------|
g|------------------------------------------------|
d|-0-x10-1-x10--7-7-7-7-5-5-5-5--2--222--1--111---|
a|-0-x10-1-x10--7-7-7-7-5-5-5-5--2--222--1--111---|
d|-0-x10-1-x10--7-7-7-7-5-5-5-5--2--222--1--111---|


This life of hate
intro
e|------------------------------------------------------------|
b|------------------------------------------------------------|
g|------------------------------------------------------------|
d|-8-8/9-9-9--x3--8-10-11-8-8--/---3-3/4-4-4--x3--5-6-5-3-3---|
a|-8-8/9-9-9--x3--8-10-11-8-8--/---3-3/4-4-4--x3--5-6-5-3-3---|
d|-8-8/9-9-9--x3--8-10-11-8-8--/---3-3/4-4-4--x3--5-6-5-3-3---|
Tap to rate this tab
# A B C D E F G H I J K L M N O P Q R S T U V W X Y Z