Song name
# A B C D E F G H I J K L M N O P Q R S T U V W X Y Z

Misc Unsigned Bands - Cadaver Dogs - Pull The Trigger tab

O.K i know for sure that there are no mistakes in this because i am the one
that wrote the song originally.

INTRO
E|----------------------0-------0-------0-------0-------3-------3------------0|
B|-----0-------0-------1-1-----1-1-----1-1-----1-1-----0-0-----0-0------0----0|
G|----0-0-----0-0-----2---2---2---2---2---2---2---2---0---0---0---0----0-0---0|
D|---2---2---2---2---2-----2-2-----2-3-----3-3-----3------------------2---2--2|
A|--2-----2-2-----2-0-------0-------0-------0--------2-----2-2-----2-2-----2-2|
E|-0-------0----------------------------------------3-------3-------0--------0|

MAIN RIFF
E|-0-0-0-0-0-0-0--0-0-0-0-0-0--0-0-0-0-0-0--0-0-0-3-3-3-3-|---------------|0|            
B|-0-0-0-0-0-0-0--1-1-1-1-1-1--1-1-1-1-1-1--0-0-0-0-0-0-0-|---------------|0|
G|-0-0-0-0-0-0-0--2-2-2-2-2-2--2-2-2-2-2-2--0-0-0-0-0-0-0-|---------------|0|
D|-2-2-2-2-2-2-2--2-2-2-2-2-2--3-3-3-3-3-3--0-0-0-0-0-0-0-|///REPEAT 1X\\\|2|
A|-2-2-2-2-2-2-2--0-0-0-0-0-0--0-0-0-0-0-0--2-2-2-2-2-2-2-|---------------|2|
E|-0-0-0-0-0-0-0--0-0-0-0-0-0--0-0-0-0-0-0--2-2-2-2-2-2-2-|---------------|0|

BETWEEN RIFF AND CHORUS SOLO #1
E|-0-2-3-0-2-3-0-5----0-2-3-0-2-3-0-------|---------------|-------0--|              
B|----------------------------------3-2-0-|---------------|-2--3-----|
G|----------------------------------------|---------------|----------|
D|----------------------------------------|///REPEAT 1X\\\|----------|
A|----------------------------------------|---------------|----------|
E|----------------------------------------|---------------|----------|

CHORUS
E|-7-7-7-7--5-5--5-5-5-5--7-7--5-5--5-5-|---------------|-5--|
B|-8-8-8-8--6-6--5-5-5-5--8-8--6-6--5-5-|---------------|-5--|
G|-9-9-9-9--7-7--5-5-5-5--9-9--7-7--5-5-|---------------|-5--|
D|-9-9-9-9--7-7--7-7-7-7--9-9--7-7--7-7-|///REPEAT-1X\\\|-7--|
A|-7-7-7-7--5-5--7-7-7-7--7-7--5-5--7-7-|---------------|-7--|
E|-7-7-7-7--5-5--5-5-5-5--7-7--5-5--5-5-|---------------|-5--|

MAIN RIFF
E|-0-0-0-0-0-0-0--0-0-0-0-0-0--0-0-0-0-0-0--0-0-0-3-3-3-3-|---------------|0|            
B|-0-0-0-0-0-0-0--1-1-1-1-1-1--1-1-1-1-1-1--0-0-0-0-0-0-0-|---------------|0|
G|-0-0-0-0-0-0-0--2-2-2-2-2-2--2-2-2-2-2-2--0-0-0-0-0-0-0-|---------------|0|
D|-2-2-2-2-2-2-2--2-2-2-2-2-2--3-3-3-3-3-3--0-0-0-0-0-0-0-|///REPEAT-1X\\\|2|
A|-2-2-2-2-2-2-2--0-0-0-0-0-0--0-0-0-0-0-0--2-2-2-2-2-2-2-|---------------|2|
E|-0-0-0-0-0-0-0--0-0-0-0-0-0--0-0-0-0-0-0--2-2-2-2-2-2-2-|---------------|0|

BETWEEN RIFF AND CHORUS SOLO #2
E|-0-5-3-2--0-5-3-2-0-----|---------------|
B|--------------------3-2-|---------------|
G|------------------------|---------------|
D|------------------------|///REPEAT-1X\\\|
A|------------------------|---------------|
E|------------------------|---------------|

CHORUS
E|-7-7-7-7--5-5--5-5-5-5--7-7--5-5--5-5-|---------------|-5--|
B|-8-8-8-8--6-6--5-5-5-5--8-8--6-6--5-5-|---------------|-5--|
G|-9-9-9-9--7-7--5-5-5-5--9-9--7-7--5-5-|---------------|-5--|
D|-9-9-9-9--7-7--7-7-7-7--9-9--7-7--7-7-|///REPEAT-1X\\\|-7--|
A|-7-7-7-7--5-5--7-7-7-7--7-7--5-5--7-7-|---------------|-7--|
E|-7-7-7-7--5-5--5-5-5-5--7-7--5-5--5-5-|---------------|-5--|

SOLO                   p
E|------------------------------------------------------------------------|
B|------------------------------------------------------------------------|
G|---------0-2-3-2-0---2-0-0--3-2-0---0-----2-0---------------------------|
D|-0-2-0-2-----------2--------------2---2-2-----2-0-----------------------|
A|--------------------------------------------------2-0-------------------|
E|------------------------------------------------------3-0-0-0-0-0-0-0-0-|

CHORUS
E|-7-7-7-7--5-5--5-5-5-5--7-7--5-5--5-5-|---------------|-5--|
B|-8-8-8-8--6-6--5-5-5-5--8-8--6-6--5-5-|---------------|-5--|
G|-9-9-9-9--7-7--5-5-5-5--9-9--7-7--5-5-|---------------|-5--|
D|-9-9-9-9--7-7--7-7-7-7--9-9--7-7--7-7-|///REPEAT-6X\\\|-7--|
A|-7-7-7-7--5-5--7-7-7-7--7-7--5-5--7-7-|---------------|-7--|
E|-7-7-7-7--5-5--5-5-5-5--7-7--5-5--5-5-|---------------|-5--|

| /  slide up
| \  slide down
| h  hammer-on
| p  pull-off
| ~  vibrato
| +  harmonic
| x  Mute note
Tap to rate this tab
# A B C D E F G H I J K L M N O P Q R S T U V W X Y Z