Song name
# A B C D E F G H I J K L M N O P Q R S T U V W X Y Z

Misc Unsigned Bands - Tomorrows Gone - Roam The Earth tab

e-----------------------------------------------------------------------------|
b-----------------------------------------------------------------------------|
g-----------------------------------------------------------------------------|
d---------0-0-0-0--------0-0-0-0--------0-0-0-0--------0-0-0-0--------0-0-0-0-|
a-----9-9------------9-9------------7-7------------7-7------------7-7---------|
E-7-7------------7-7------------5-5------------5-5------------5-5-------------|

e----------------------------------------------------------------------------|
b----------------------------------------------------------------------------|
g-------------------------------------------------------x2-------------------|
d---------0-0-0-0--------0-0-0-0--------0-0-0-00-0-0-000---------------------|
a-----5-5------------5-5------------5-5--------4/5-5/777---------------------|
E-3-3------------3-3------------3-3------------2/3-3/555---------------------|

first 2 in w/ chorus effect
then twice again w/ dist.

CHORUS(STRUM T t t T t tm t t t T)T=1/4 t=1/8 tm=1/8+1/16
e----------------------------------------------------------------------------|
b----------------------------------------------------------------------------|
g----------------------------------------------------------------------------|
d-9--7--00-5--00-5-----------------------------------------------------------|
a-9--7--00-5--00-5-----------------------------------------------------------|
E-7--5--00-3--00-3-----------------------------------------------------------|
        ..    ..
REPEAT VERSE
CHORUS AGAIN

BRIDGE guitar 1                                      x4
e----------------------------------------------------|
b----------------------------------------------------|
g----------------------------------------------------|
d------------------------------------2~-2-3b--2--2---|
a-9999--9999--9999-9999--9999--9999--2~-2-3b--2--2---|
E-7777--7777--7777-7777--7777--7777--0~-0-1b--0--0---|
guitar2 after 2nd rep of bridge
e----------------------------------------------------|
b----------------------------------------------------|
g----------------------------------------------------|
d-9~---9-11-12-14-12-11-7-2~----2-4-5-7-5-4-5-0------|
a----------------------------------------------------|
E----------------------------------------------------|

REPEAT DISTORTED VERSE ONCE
REPEAT CHORUS
Tap to rate this tab
# A B C D E F G H I J K L M N O P Q R S T U V W X Y Z