Guitaretab - guitar tabs
Song name
# A B C D E F G H I J K L M N O P Q R S T U V W X Y Z

Misc Unsigned Bands - Aureal - Renacer tab

Banda: Aureal
Album: "Sueos"
Tema: Renacer

AFINACION: OPEN C (C-G-C-F-A-D)

pm: palm mute
/ slide
LR: Let Ring

INTRO: NOTAS DEL VERSE (BAJO)

VERSE 1:

|--------0---------------------0-|--------0-----------------------0-----0-----|
|------3-------3--------3--------|------3---3-----3---------3-------3-----3---|
|----4-------4---4----4---4------|----4---------4---4-----4---4-------4-----4-|
|--2-------0---------------------|--2---------0-------0-----------------------|
|------------------3--------3----|----------------------3-------3-------------|
|--------------------------------|--------------------------------------------|

VERSE 2:

|------------------------------------------------------------------|
|-------3-------3-------5-------5--------5-------5-------5---5---5-|
|-------4-------4-------4-------4--------4-------4-------4---4---4-|
|-2-2-2---2-2-2---0-0-0---0-0-0------------------------------------|
|----------------------------------3-3-3---3-3-3---3-3-3---3---3---|
|------------------------------------------------------------------|
 pm

|--------------------------------------------0-----0-----|
|-------3-------3-------5--------------5-------5-----5---|
|-------4-------4---------4----------4---4-------4-----4-|
|-2-2-2---2-2-2---0-0-0-----0----------------------------|
|----------------------------------3-------3-------------|
|--------------------------------------------------------|
PM

ESTRIBILLO 1:

|----------------------------------------|
|------5----5-8-8-8-8-5-5-5-5-5-5-7-7-7--|
|--------4--4-7-7-7-7-5-5-5-5-5-5-7-7-7--|
|--2-2-----2--7-7-7-7-5-5-5-5-5-5-7-7-7--|
|--2-2-----2--5-5-5-5-3-3-3-3-3-3-5-5-5--|
|--2-2-----2-----------------------------|

VERSE 1.-
VERSE 2.-
ESTRIBILLO 1.-

ESTRIBILLO 2: (X2)
[ Tab from: http://www.guitaretab.com/m/misc-unsigned-bands/69549.html ]
|----------------------------------------------------------------------|
|----------------------------------------------------------------------|
|-----------------------7-7-7-7-7-8/10-10-10-10-0-10-10-10-10/12-12-12-|
|-2-2-2-2-2-2-2-2-0-0-0-7-7-7-7-7-8/10-10-10-10-0-10-10-10-10/12-12-12-|
|-2-2-2-2-2-2-2-2-0-0-0-5-5-5-5-5-8/10-10-10-10-0-10-10-10-10/12-12-12-|
|-2-2-2-2-2-2-2-2-0-0-0-0---------8/10-10-10-10-0-10-10-10-10/12-12-12-|

FILL 1:

|-------------------------0--0--0--------------------------------|
|-------------------------0--0--0--------------------------------|
|-------------------------0--0--0--------------------------------|
|-6-6-6-6-6-0-10-10-10-10-10-10-10-0-2-2-2-2-2-0-3-3-3-3-3/5-5-5-|
|-6-6-6-6-6-0-10-10-10-10----------0-2-2-2-2-2-0-3-3-3-3-3/5-5-5-|
|-6-6-6-6-6-0-10-10-10-10----------0-2-2-2-2-2-0-3-3-3-3-3/5-5-5-|
			  LR

SOLO (SOBRE ESTRIBILLO 1) X2

|------------------------------------------------------|
|-9-9-9-9-9-9-7-7-7-7/8/7----8-8-8-8-8-8-8-8/12-12-12--|
|-9-9-9-9-9-9-7-7-7-7----7---7-7-7-7-7-7-7-7/11-11-11--|
|-9-9-9-9-9-9-7-7-7-7------7-5-5-5-5-5-5-5-5/9--9--9---|
|------------------------------------------------------|
|------------------------------------------------------|

FILL 1.-
VERSE 1.-

CORTE: (X2)

|-------------------0----|
|--3--3-------3------3---|
|--4--4-----4---4------4-|
|--2--0------------------|
|---------3-------3------|
|------------------------|
 LR

ESTRIBILLO 1.-
ESTRIBILLO 2.-
ESTRIBILLO 1.-

ARREGLO SOBRE EL ULTIMO ESTRIBILLO:

|--------------------------------------------------------------|
|--------17--------------15--------------13-------12-------13--|
|-----16----16--------14----14--------12----12-------12--------|
|-14-----------14-12-----------12-10-----------10-------10-----|
|--------------------------------------------------------------|
|--------------------------------------------------------------|

|-------------------------------------|
|--------17--------------15-------13--|
|-----16----16--------14----14----12--|
|-14-----------14-12-----------12-10--|
|-------------------------------------|
|-------------------------------------|

FIN:

|-----|
|--5--|
|--4--|
|--2--|
|--2--|
|--2--|
  LR

www.aurealmusic.com.ar
Related for Aureal - Renacer tab