Guitaretab - guitar tabs
Song name
# A B C D E F G H I J K L M N O P Q R S T U V W X Y Z

Misc Unsigned Bands - Aureal - Eres Sol tab

Banda: Aureal
Album: "Sueos"
Tema: eres sol

AFINACION: OPEN C (C-G-C-F-A-D)

/ Slide
pm: palm mute

Intro: (OVERDRIVE)

|------------------------------------------------------------------------------|
|------------------------------------------------------------------------------|
|----------------------------------------------------------------------------0-|
|--7--7-7-7-7----7----5--7--7-7-7-7-/---5---7--7-7-7-7----7----5--7--7-7-7-7---|
|--5--5-5-7-5--0-5--0-3--5--5-5-7-5-/-0-3---5--5-5-7-5--0-5--0-3--5--5-5-7-5---|
|--0--0-0-0-0--0-5--0----0--0-0-0-0-/-0-----0--0-0-0-0--0-5--0----0--0-0-0-0---|

ESTRIBILLO 1: X8

|-----------------------------------------|
|-----------------------------------------|
|-----------------------------------------|
|-0-0-0-2/3/2-0---0/5-5---0/10-10-10-10---|
|-0-0-0-2/3/2-0---0/5-5---0/10-10-10-10---|
|-0-0-0-2/3/2-0---0/5-5---0/10-10-10-10---|

VERSE: X2

|--------------------------------------------------------------------------------------------|
|--------------------------------------------------------------------------------------------|
|--------------------------------------------------------------------------------------------|
|--7--7-7-7-7----7----5--7--7-7-7-7--7-7/10-10----5---7--7-7-7-7----7----5--7--7-7-7-7-/---5-|
|--5--5-5-7-5--0-5--0-3--5--5-5-7-5--5-5/10-10--0-3---5--5-5-7-5--0-5--0-3--5--5-5-7-5-/-0-3-|
|--0--0-0-0-0--0-5--0----0--0-0-0-0-------------------0--0-0-0-0--0-5--0----0--0-0-0-0-/-0---|

ESTRIBILLO 1.- (X4)
VERSE.- (X2)
ESTRIBILLO 1.- (X4)

FILL 1: (X4)

|--------------------------------|
|--------------------------------|
|-------------5-5-5--------------|
|-0-0-0-2/3/2-5-5-5-5-5-3-3-5-5--|
|-0-0-0-2/3/2-3-3-3-5-5-3-3-5-5--|
|-0-0-0-2/3/2-3-3-3-5-5-3-3-5-5--|

CORTE (BAJO SOBRE FILL 2)

|----------------------------|
|----------------------------|
|----------------------------|
|-0-0---0-0-----0-0-----0-0--|
|-0-0---0-0-----0-0-----0-0--|
|-0-0---0-0-----0-0-----0-0--|


FILL 2: (X4)

|---------------------------------|
|---------------------------------|
|---------------------------------|
|--0-3-2-0-0--0-0--0-3-2-0-5-5----|
|--0-3-2-0-0--0-0--0-3-2-0-5-5----|
|--0-3-2-0-0--0-0--0-3-2-0-5-5----|

FILL 3:

|----------------------------------------------------------|
|----------------------------------------------------------|
|----------------------------------------------------------|
|--0-3-2-0-0--0-2-0-2-0-3/5-5--0-3-2-0-0--0-2-0-2-0-2/3/2--|
|--0-3-2-0-0--0-2-0-2-0-3/5-5--0-3-2-0-0--0-2-0-2-0-2/3/2--|
|--0-3-2-0-0--0-2-0-2-0-3/5-5--0-3-2-0-0--0-2-0-2-0-2/3/2--|
[ Tab from: http://www.guitaretab.com/m/misc-unsigned-bands/69551.html ]
|----------------------------------------------------------|
|----------------------------------------------------------|
|----------------------------------------------------------|
|--0-3-2-0-0--0-2-0-2-0-3/5-5--0-3-2-0-0--0-2-0-3-0-5/3/2--|
|--0-3-2-0-0--0-2-0-2-0-3/5-5--0-3-2-0-0--0-2-0-3-0-5/3/2--|
|--0-3-2-0-0--0-2-0-2-0-3/5-5--0-3-2-0-0--0-2-0-3-0-5/3/2--|

FILL 4: (X8)

|---------------------------------------|
|-------2--------5----------------------|
|-------2--------5----------------------|
|--0--0/2--0/3/0/5--0/5/0--10/12-12-12--|
|--0--0/0--0/3/0/3--0/5/0--10/12-12-12--|
|--0--0----0/3/0----0/5/0--10/12-12-12--|

CORTE:
(BAJO SOBRE ESTRIBILLO)
GUIT. C/ OVERDRIVE

|------------------------------|
|--------------------------0---|
|--------------0---------------|
|----------7----------7--------|
|--------5---5------5---5------|
|-0----0----------0------------|

SOLO:

|------------------------------------------------------------------------|
|------------------------------------------------------------------------|
|---------------------------------5-----------------------------------5/-|
|-----7-----5-----------7-----5-----------7-----5-----------7-----5------|
|---5---5/7-----3-----5---5/7---3-------5---5/7-----3-----5---5/7---3----|
|-0-----------------0-----------------0-----------------0----------------|

|--------------------------------------------------------------------------------|
|-----5---7-----8--------8---5--5/7-----5---7-----8-------8---8---5---5---8---8--|
|-5/7---7-----7---7---5----5--------5/7---7-----7---7---5---5---5---5---5---5----|
|--------------------------------------------------------------------------------|
|--------------------------------------------------------------------------------|
|--------------------------------------------------------------------------------|
                                                (*)

(*) entra la 2 guitarra:

|---------------------------------|
|---------------------------------|
|---------------------------------|
|--5-5-5-5-5-5/10-10-10-10-10-10--|
|--5-5-5-5-5-5/10-10-10-10-10-10--|
|--5-5-5-5-5-5/10-10-10-10-10-10--|
  |pm|

ESTRIBILLO 2: (X4)

|------------------------------------------------------------------|
|------------------------------------------------------------------|
|------------------------------------------------------------------|
|-0-0-0-2/3/2-0--0-0-0-2/3/2-0--0/5-5-5-5-5-5-5/10-10-10-10-10-10--|
|-0-0-0-2/3/2-0--0-0-0-2/3/2-0--0/5-5-5-5-5-5-5/10-10-10-10-10-10--|
|-0-0-0-2/3/2-0--0-0-0-2/3/2-0--0/5-5-5-5-5-5-5/10-10-10-10-10-10--|

FILL 5: 

|--------------------------|
|--------------------------|
|--------------------------|
|--0-0---0-0---0/10-10/5-5-|
|--0-0---0-0---0/10-10/5-5-|
|--0-0---0-0---0/10-10/5-5-| (X3)

FINAL:

|-------------------------------------------------|
|-------------------------------------------------|
|-------------------------------------------------|
|--0-3-2-0-0--0-0--0-3-2-0-5-5----0-3-2-0-0--0-0--|
|--0-3-2-0-0--0-0--0-3-2-0-5-5----0-3-2-0-0--0-0--|
|--0-3-2-0-0--0-0--0-3-2-0-5-5----0-3-2-0-0--0-0--|
  |pm|                      |pm|

www.aurealmusic.com.ar
Related for Aureal - Eres Sol tab