Song name
# A B C D E F G H I J K L M N O P Q R S T U V W X Y Z

Misc Unsigned Bands - Aureal - Eterna Confusion tab

AUTOR: AUREAL
TEMA: Eterna Confusión
ALBUM: UNISONO

AFINACION: C-G-C-F-A-D
pm: palm mute
/:slide
b:bend

INTRO:

|-------------------------------------------------------------------0-0-|
|-------------------------------------------------------------------0-0-|
|--4--4-4-4--4-4-4-4--4--4-4-4--4-4--4-4-4--4--4-4-4--4-4-4-4--4--4-4-4-|
|--2--2-2-2--2-2-2-2--0--0-0-0--0-0--0-0-0--2--2-2-2--2-2-2-2--0--0-0-0-|
|--0--0-0-0--3-3-3-3--2--2-2-2--2-2--2-2-2--0--0-0-0--3-3-3-3--2--2-2-2-| DEJAR SONAR
|-----------------------------------------------------------------------|
      |pm|     |pm|      |pm|         |pm|     |pm|     |PM|

|-------------------------------------------------------------------------------------|
|-----------------0--0--------------------------------------0--0----------------------|
|-----------------0--0--------------------------------------0--0----------------------|
|--7-7-7-7--0-10-10-10--9-9-9-9--0/3-3--5-5--7-7-7-7--0-10-10-10--9-9-9-9--0-12-12-12-|
|--7-7-7-7--0-10-10-10--9-9-9-9--0/3-3--5-5--7-7-7-7--0-10-10-10--9-9-9-9--0-12-12-12-|
|--7-7-7-7--0-10-10-10--9-9-9-9--0/3-3--5-5--7-7-7-7--0-10-10-10--9-9-9-9--0-12-12-12-|

|------------------------------------------------------------------------------------|
|-----------------0--0---------------------------------------------------------------|
|-----------------0--0---------------------------------------------------------------|
|--7-7-7-7--0-10-10-10--9-9-9-9--0/3-3--5-5--7-7-7-7-9-9-9-9-10-10-10-10-12-12-12-12-|
|--7-7-7-7--0-10-10-10--9-9-9-9--0/3-3--5-5--7-7-7-7-9-9-9-9-10-10-10-10-12-12-12-12-|
|--7-7-7-7--0-10-10-10--9-9-9-9--0/3-3--5-5--7-7-7-7-9-9-9-9-10-10-10-10-12-12-12-12-|

ESTROFA:

|-------------------------------------------------------------------------------|
|-------------------------------------------------------------------------------|
|--4--4-4-4--4-4-4-4--4--4-4-4--7-7-7-7--4--4-4-4--4-4-4-4--4--4-4-4--5-5-5-5---|
|--2--2-2-2--2-2-2-2--0--0-0-0--0-0-0-0--2--2-2-2--2-2-2-2--0--0-0-0--3-3-3-3---|
|--0--0-0-0--3-3-3-3--2--2-2-2--5-5-5-5--0--0-0-0--3-3-3-3--2--2-2-2--3-3-3-3---|
|---------------------------------------------------------------------3-3-3-3---|
      |pm|     |pm|      |pm|               |pm|     |pm|      |pm|

|-------------------------------------------------------------------------------|
|-------------------------------------------------------------------------------|
|--4--4-4-4--4-4-4-4--4--4-4-4--7-7-7-7--4--4-4-4-4-4-4-4-5-5-5-5-10-10-10-10---|
|--2--2-2-2--2-2-2-2--0--0-0-0--0-0-0-0--2--2-2-2-0-0-0-0-X-X-X-X-X--X--X--X----|
|--0--0-0-0--3-3-3-3--2--2-2-2--5-5-5-5--0--0-0-0-2-2-2-2-3-3-3-3-8--8--8--8----|
|-------------------------------------------------------------------------------|
      |pm|     |pm|      |pm|


ESTRIBILLO 1:
                                X2                                  X2
|---------------------------------|---------------------------------|
|---------------------------------|---------------------------------|
|--------2b-----------------------|----2/7-7-7-7b-------------------|
|-0--0-----------0/5-5-5/7-7-7-7--|-0--0-----------0/5-5-5/7-7-7-7--|
|-0--0-----------0/5-5-5/7-7-7-7--|-0--0-----------0/5-5-5/7-7-7-7--|
|-0--0-----------0/5-5-5/7-7-7-7--|-0--0-----------0/5-5-5/7-7-7-7--|

ESTROFA:

|-------------------------------------------------------------------------------|
|-------------------------------------------------------------------------------|
|--4--4-4-4--4-4-4-4--4--4-4-4--7-7-7-7--4--4-4-4--4-4-4-4--4--4-4-4--5-5-5-5---|
|--2--2-2-2--2-2-2-2--0--0-0-0--0-0-0-0--2--2-2-2--2-2-2-2--0--0-0-0--3-3-3-3---|
|--0--0-0-0--3-3-3-3--2--2-2-2--5-5-5-5--0--0-0-0--3-3-3-3--2--2-2-2--3-3-3-3---|
|---------------------------------------------------------------------3-3-3-3---|
      |pm|     |pm|      |pm|               |pm|     |pm|      |pm|

|-------------------------------------------------------------------------------|
|-------------------------------------------------------------------------------|
|--4--4-4-4--4-4-4-4--4--4-4-4--7-7-7-7--4--4-4-4-4-4-4-4-5-5-5-5-10-10-10-10---|
|--2--2-2-2--2-2-2-2--0--0-0-0--0-0-0-0--2--2-2-2-0-0-0-0-X-X-X-X-X--X--X--X----|
|--0--0-0-0--3-3-3-3--2--2-2-2--5-5-5-5--0--0-0-0-2-2-2-2-3-3-3-3-8--8--8--8----|
|-------------------------------------------------------------------------------|
      |pm|     |pm|      |pm|



ESTRIBILLO 2:
                                X2                                    X2
|---------------------------------|---------------------------------------|
|---------------------------------|------10-10-10-10----9-9-9-10-10-10-10-|
|----2/7-7-7-7b----------9-9-9-9--|----2/7--7--7--7-----7-7-7/9--9--9--9--|
|-0--0-----------0/5-5-5/7-7-7-7--|-0--0--------------0/5-5-5/7--7--7--7--|
|-0--0-----------0/5-5-5/7-7-7-7--|-0--0--------------0/5-5-5/7--7--7--7--|
|-0--0-----------0/5-5-5/7-7-7-7--|-0--0--------------0/5-5-5/7--7--7--7--|


FILL 1:
|-------------------------------------------------------------------------------------------------------------------|
|-------------------------------------------------------------------------------------------------------------------|
|-------------------------------------------------------------------------------------------------------------------|
|-3-0-1-0-0--1-0-1-0-0-x-x--3-0-1-0-0--1-0-1-0-0-x-x--1-0-1-0-0--1-0-1-0-0-x-x--3-0-1-0-0--1-0-1-0-0-x-x-1-0-1-0----|
|-3-0-1-0-0--1-0-1-0-0-x-x--3-0-1-0-0--1-0-1-0-0-x-x--1-0-1-0-0--1-0-1-0-0-x-x--3-0-1-0-0--1-0-1-0-0-x-x-1-0-1-0----| DEJAR
|-3-0-1-0-0--1-0-1-0-0-x-x--3-0-1-0-0--1-0-1-0-0-x-x--1-0-1-0-0--1-0-1-0-0-x-x--3-0-1-0-0--1-0-1-0-0-x-x-1-0-1-0----| SONAR

INTERLUDIO (con flanger):

|------------------0-----|
|--------0-------0---0---|
|------4-------4---------|
|----2-------2-----------|
|--0-------0-------------|
|------------------------|

PUENTE 1:
                              X3
|-------------------------------|----------0-0-0-0--|
|-------------------------------|------0-0-0-0-0-0--|
|--4--4-4-4--4-4--4-4-----------|--4-4-4-4-4-4-4-4--|
|--2--2-2-2--2-2--2-2--2/2/2/2--|--2-2-2-2-2-2-2-2--|
|--0--0-0-0--0-0--0-0--0/0/0/0--|--0-0-0-0-0-0-0-0--|
|----------------------0/0/0/0--|-------------------|
      |         pm            |


PUENTE 2:

|--------------------------------------------------------------------------------------------|
|--------------------------------------------------------------------------------------------|
|--------------------------------------------------------------------------------------------|
|--0/7-7-7-7-7-7--0/10-10--0/7-7-7-7-7-7--0/12-12--0/7-7-7-7-7-7-0/10-10--0/3-3-3-3/5-5-5-5--|
|--0/7-7-7-7-7-7--0/10-10--0/7-7-7-7-7-7--0/12-12--0/7-7-7-7-7-7-0/10-10--0/3-3-3-3/5-5-5-5--|
|--0/7-7-7-7-7-7--0/10-10--0/7-7-7-7-7-7--0/12-12--0/7-7-7-7-7-7-0/10-10--0/3-3-3-3/5-5-5-5--|

ESTRIBILLO 3:
                                    X2
|---------------------------------------|
|------10-10-10-10----9-9-9-10-10-10-10-|
|----2/7--7--7--7-----7-7-7/9--9--9--9--|
|-0--0--------------0/5-5-5/7--7--7--7--|
|-0--0--------------0/5-5-5/7--7--7--7--|
|-0--0--------------0/5-5-5/7--7--7--7--|


|---------------------------------------|---------------------------------------------|
|------15-15-15-15----9-9-9-10-10-10-10-|------15-15-15-15------15-15-----15-15-15-15-|
|----2/14-14-14-14----7-7-7/9--9--9--9--|----2/14-14-14-14------14-14-----14-14-14-14-|
|-0--0--------------0/5-5-5/7--7--7--7--|-0--0--------------0-0-------0-0-------------|
|-0--0--------------0/5-5-5/7--7--7--7--|-0--0--------------0-0-------0-0-------------|
|-0--0--------------0/5-5-5/7--7--7--7--|-0--0--------------0-0-------0-0-------------|


FILL 1:
|-----------------------------------------------------------------------------------------------------|
|-----------------------------------------------------------------------------------------------------|
|-----------------------------------------------------------------------------------------------------|
|-3-0-1-0-0--1-0-1-0-0-x-x--3-0-1-0-0--1-0-1-0-0-x-x--1-0-1-0-0--1-0-1-0-0-x-x--3-0-1-0-0--1-0X0X0X0--|
|-3-0-1-0-0--1-0-1-0-0-x-x--3-0-1-0-0--1-0-1-0-0-x-x--1-0-1-0-0--1-0-1-0-0-x-x--3-0-1-0-0--1-0X0X0X0--|
|-3-0-1-0-0--1-0-1-0-0-x-x--3-0-1-0-0--1-0-1-0-0-x-x--1-0-1-0-0--1-0-1-0-0-x-x--3-0-1-0-0--1-0X0X0X0--|


Tap to rate this tab
# A B C D E F G H I J K L M N O P Q R S T U V W X Y Z