Guitaretab - guitar tabs
Song name
# A B C D E F G H I J K L M N O P Q R S T U V W X Y Z

Misc Unsigned Bands - Cats On Fire - A Day In The Life Of Me tab

This is a small band from pickering ontario, theyre pretty cool. This songs called
"A Day In The Life Of Me", its sweet. Well, enjoy!

- vic :D

intro
e --------|
b --------|
g --------|
d ---7----|   x 4
a ---7----|
e ---5----|

e -------------------------------------------------------------------------|
b -------------------------------------------------------------------------|
g -------------------------------------------------------------------------|
d -7--7--7--7--7--7--7--7--9--9--9--9--9--9--9--9--5--5--5--5--5--5--5--5--|
a -7--7--7--7--7--7--7--7--9--9--9--9--9--9--9--9--5--5--5--5--5--5--5--5--|
e -5--5--5--5--5--5--5--5--7--7--7--7--7--7--7--7--3--3--3--3--3--3--3--3--|

e -------------------------|
b -------------------------|
g -------------------------|
d -7--7--7--7--7--7--7--7--|
a -7--7--7--7--7--7--7--7--|
e -5--5--5--5--5--5--5--5--|


verses
e -------------------------|
b -------------------------|
g ---7-----9-----5-----7---| 
d ---7-----9-----5-----7---| x 2   hold each for 4 counts
a ---5-----7-----3-----5---|
[ Tab from: http://www.guitaretab.com/m/misc-unsigned-bands/69599.html ]
chorus
e -------------------------------------------------------------------------|
b -------------------------------------------------------------------------|
g -------------------------------------------------------------------------|
d -7--7--7--7--7--7--7--7--9--9--9--9--9--9--9--9--5--5--5--5--5--5--5--5--|
a -7--7--7--7--7--7--7--7--9--9--9--9--9--9--9--9--5--5--5--5--5--5--5--5--|
e -5--5--5--5--5--5--5--5--7--7--7--7--7--7--7--7--3--3--3--3--3--3--3--3--|

e -------------------------|
b -------------------------|
g -------------------------|
d -7--7--7--7--7--7--7--7--|
a -7--7--7--7--7--7--7--7--|
e -5--5--5--5--5--5--5--5--|

interlude
e ---------------------------------------------------------|
b ---------------------------------------------------------|
g ---------------------------------------------------------|
d ----7------------9------------5-------------7------------|
a ----------7-------------9------------5------------7------|
e -5-----5-----7------7------3------3------5-----5---------|

The order of the song is:
intro
verse
chorus
verse
chorus
interlude
chorus
verse
chorus
Related for Cats On Fire - A Day In The Life Of Me tab
×
Cats On Fire - A Day In The Life Of Me