Song name
# A B C D E F G H I J K L M N O P Q R S T U V W X Y Z

Misc Unsigned Bands - Lookingback - Fly tab

LOOKINGBACK- FLY
(OFF ERASE THE PAST)
TABBED BY KEVIN McLEAN

This is a local band from Greensboro, NC.  You should definitely check ‘em out if
you’re in the area.  They play great covers and even better original songs. This
is a song written by Dave Schlosser, the bands drummer, guys I did my best on this
tab...sorry if its not right, but it sounds good to me so. More info on this band
go to: lookingbackfans.com and check ‘em out!

INTRO/PRECHOURUS
e-----------------------------------------------------------------------|
B-----------------------------------------------------------------------|
G-6/7-7-7------6/7-7-6-4-2-4--------------------------------------------|
D-x/x-x-x--x3--x/x-x-x-x-x-x--------------------------------------------|
A-4/5-5-5------4/5-5-4-2-0-2--------------------------------------------|
E-----------------------------------------------------------------------|


CHORUS
Then acoustic play (A E F#m Dsus2)

Electric play

e---------------------------0-------------------------------------------|
B-----------------------------0--------------2-------2------2-----------|
G--5b--3p0---3p0----0h2---------1--------------2-------2------4---------|
D------------------------------------------------4-------4------2-------|
A--------------------------------------------------2-------2------2-----|
E-----------------------------------------2-----------------------------|

e---------------------------------|
B--3--2--0------------------------|
G-----------2--2//9-9-9-----------|
D---------------------------------|
A---------------------------------|
E---------------------------------|


Verse
Acoustic play (A E F#m Dsus2)

2nd time Electric palm mute power chords (A E F#m Dsus2)

And listen to play
e---------------------------------|
B--3--2--0------------------------|
G-----------2--2//9-9-9-----------|
D---------------------------------|
A---------------------------------|
E---------------------------------|

Bridge
e-------------------------------------------------------------------|
B-------------------------------------------------------------------|
G-\11-x-11-11\-13-x-13-13\-14-x-18-18/-14/11\13---------------------|
D-\-x-x--x--x\--x-x--x--x\--x-x--x--x/--x/-x\-x------x3-------------|
A-\-9-x--9--9\-11-x-11-11\-12-x-16-16/-12/-9\11---------------------|
E-------------------------------------------------------------------|

e-------------------------------------------------------------------|
B-------------------------------------------------------------------|
G-\11-x-11-11/-9-x-9-9-----------6/7-7-7------6/7-7-6-4-2-4---------|
D-\-x-x--x--x/-x-x-x-x---THEN----x/x-x-x--x3--x/x-x-x-x-x-x---------|
A-\-9-x--9--9/-7-x-7-7-----------4/5-5-5------4/5-5-4-2-0-2---------|
E-------------------------------------------------------------------|


HOW TO PLAY:

INTRO/PRECHORUS
CHORUS
Verse x2
INTRO/PRECHORUS
CHORUS x2
INTRO/PRECHORUS
Verse x2
INTRO/PRECHORUS
CHORUS x2
Bridge
CHORUS x2
END WITH: INTRO/PRECHORUS

Chords                         BARR power chords
   A   E   F#m    Dsus2            A    E    F#m    Dsus2
e--0---0----2------0---------------x----x-----x------x-----------------|
B--2---0----2------3---------------x----x-----x------x-----------------|
G--2---1----2------2---------------x----x-----x------7-----------------|
D--2---2----4------0---------------7----2-----4------7-----------------|
A--0---2----4------0---------------7----2-----4------5-----------------|
E--x---0----2------x---------------5----0-----2------x-----------------|
Tap to rate this tab
# A B C D E F G H I J K L M N O P Q R S T U V W X Y Z