Song name
# A B C D E F G H I J K L M N O P Q R S T U V W X Y Z

Misc Unsigned Bands - Doc Woz - My Air tab

-----------------------------------------------------------------------------
			My Air- Doc Woz  -Misc Unsigned Band
-----------------------------------------------------------------------------
Tabbed by:JJ
Email:acdc_tattoo@yahoo.com

Tuning:standard

Intro and verse
e|--------------------------------------------------------------------------|
B|--------------------------------------------------------------------------|
G|--------------------------------------------------------------------------|
D|--------------------------------------------------------------------------|
A|---------555-333----3---------555-333----3--------------------------------|
E|----333-----------3---3---333----------3---3------------------------------|

Chorus 
e|--------------------------------------------------------------------------|
B|--------------------------------------------------------------------------|
G|-----------77777--55555----5------------77777--55555-----5----------------|
D|----55555--77777--55555--5-5-5---55555--77777--55555--5--5--5-------------|
A|----55555--55555--33333--5-3-5---55555--55555--33333--5--3--5-------------|
E|----33333----------------3---3---33333----------------3-----3-------------|

band website
www.myspace.com/docwoz

Tap to rate this tab
# A B C D E F G H I J K L M N O P Q R S T U V W X Y Z