Song name
# A B C D E F G H I J K L M N O P Q R S T U V W X Y Z

Misc Unsigned Bands - Switchblade Confessions - Back In With You tab

Help us improve GuitareTab! Take a short survey!
-------------------------------------------------------------------------------
			     BACK IN WITH YOU - Switchblade Confessions
-------------------------------------------------------------------------------
Tabbed by: James Cramer
Email: switchbladeconfessions@yahoo.com

Tuning: Half Step; Drop D

e|-------------------------------------|---------------------------------------|
B|---------3---------------------------|---------------------------------------|
G|-----------4-------------------------|---------------------------------------|
D|-----4-------4--4-----2-----2---2-2-4|xxxx-5555555555555555-2222222222222222-|
A|---4---4----------4-----4-----4------|xxxx-5555555555555555-2222222222222222-|
E|2-------------------2-----2----------|xxxx-5555555555555555-2222222222222222-|

e|----------------|17-15-14---17-15-14----17-15-14-------------------|
B|----------------|---------15---------15----------15-15-17brbrbrbr15|
G|----------------|--------------------------------------------------|
D|4444444444444444|--------------------------------------------------|
A|4444444444444444|--------------------------------------------------|
E|4444444444444444|--------------------------------------------------|

e|-------------------------------|-----------------------------------|
B|--------5-------3-------2------|--------5-------3-------2-------3--|
G|----2-----2-------2-------2----|----0-----0-------0-------0-------0|
D|--4---4-----4-------4-------4--|--4---4-----4-------4-------4------|
A|2-------------2-------2-------2|-----------------------------------|
E|-------------------------------|5-------------5-------5-------5----|

e|-------------------|-----------------------------17mm-17-15-14-15-19-17-15-|
B|-------------------|<5>-----------------15br-15m---------------------------|
G|-------------------|<5>-----7-9br-7m--/------------------------------------|
D|000-422-7540-000-42|<5>-7h9------------------------------------------------|
A|000-422-7540-000-42|<5>----------------------------------------------------|
E|000-422-7540-000-42|-------------------------------------------------------|

e|14h-15p-14----14-----------------------------------------------------------|
B|-----------17----[17-15-14]------------------------------------------------|
G|--------------------------[17-15-14]---------------------------------------|
D|-----------------------------------[17-15-14]------------------------------|
A|--------------------------------------------[17-15-14]---------------------|
E|-----------------------------------------------------[17-15]/--------------|

| /  slide up
| \  slide down
| h  hammer-on
| p  pull-off
| ~  vibrato
| <> harmonic
| x  Mute note
| [] Wah
===============================================================================
Related for Switchblade Confessions - Back In With You tab