Song name
# A B C D E F G H I J K L M N O P Q R S T U V W X Y Z

Misc Unsigned Bands - Primitive Charisma - 13 tab

    Primitive Charisma- 13


ok...  this is our song so none of you litlle friggen know it alls tell us it's wrong.
a'ight?  k...  cuz we are going to go McDonalds when we are done tabbing this and we
don't really feel like listening to all your guys' pathetic complaints.  anyways.
our rhythm player sucks so it's not really hard on his part but the bass player and
lead player are beasts.  so get somebody that sucks to play rhythm for you.  sorry JR.
anyways...  here is our song...

these guys are the best acid rock band without screaming!  yeah... i hate screamo!
write music people.  not crap... just some advice to all you young hardcore fellows.

intro
e|---------------|
B|---------------|
G|---------------|
D|-0----111-0----|
A|-0----111-0----|
D|-0----111-0----|x____3   then a pimpin pick scrape
        ...pm...
e|---------------------------|
B|---------------------------|
G|---------------------------|
D|--0-7-1-8-7--7--8--8-------|_____________________guitar1 only
A|---------5-----6------8-8~-|
D|-0-7-1-8----7-----8--8-8---|___x2

e|----------------------------|
B|----------------------------|
G|----------------------------|
D|----------------------------|
A|-----------6-------------5--|
D|-0--0000--5----0--0000--6---|___x2

    verse
crappy rhythem player coming in here........  after previous riffs
e|----------------------------------------|
B|----------------------------------------|
G|-66666666-55555555----------------------| all palm muted for first two
D|-66666666-55555555-3333333333333333-----| times, then normal for next two
A|-44444444-33333333-3333333333333333-----|
D|-------------------3333333333333333-----|

then

   chorus
e|-----------------------|
B|-----------------------|
G|-----------------------|
D|-0000-1---0000-1/4\1---|
A|-0000-1---0000-1/4\1---|
D|-0000-1---0000-1/4\1---|____x3

then only lead

e|--------------------------|
B|--------------------------|
G|--------------------------|
D|-1/4/5/7/9\7\6/7----------|
A|-1/4/5/7/9\7\6/7----------|
D|-1/4/5/7/9\7\6/7----------|   then repeat whole thing

   then verse

   then chorus

   solo....   rhythm continues with verse while solo plays this real fast

      ...................gradual bend release
e|---------------------------------------------------|
B|15b-15br15r15r15r15r15r----13-12-13-12-------------|
G|--------------------------------------13p12-10~----|
D|---------------------------------------------------|
A|---------------------------------------------------|
D|---------------------------------------------------|

e|-------------------------------------------------------------------|
B|----------------------------13-12-13-12----------------------------|
G|/10h12-12-10h12-13-12h13-15------------13-12-13-12-----------------|
D|--------------------------------------------------13-12------------|
A|--------------------------------------------------------13-12-10~~-|
D|-------------------------------------------------------------------|

e|-------------------------------------------------------------------|
B|------------------------10-12-13-15-13-12--------------------------|
G|----------------10-12-13-----------------15-13-12------------------|
D|--------10-12-13---------------------------------15-13-12----------|
A|/10-12-13-------------------------------------------------15-13-12-|
D|-------------------------------------------------------------------|

e|-------------------------------------------------------------------|
B|-------------------------------------------------------------------|
G|-------------------------------------------------------------------|
D|-------------------------------------------------------------------|
A|10h12-10-9h10-9-7h9-7-5h7-5-3h5-3-1-1h3-1-0~divebomb/whammy--------|
D|------------------------------------------0~divebomb/whammy--------|


there is more solo in the live version...  so i will tab it later.


then the outro--  on clean

e|-6-------------6---------------------------------|
B|--7-6-7-6-4-0---7-6-7-9-7-6----------------------|
G|-------------------------------------------------|
D|-------------------------------------------------|
A|-------------------------------------------------|
D|-------------------------------------------------| repeat until fade out

    if you don't know all the symbols then you probably shouldn't be on this website.
not exactly fancy     :honestly:

    okay...yeah that's it.  everything is distorted except outro.  bass plays same as
rhythm... because he's a sexy beast.  so peace out... no complaints and we won't kill
you.  i'm going to McDonald's now...
Tap to rate this tab
 
# A B C D E F G H I J K L M N O P Q R S T U V W X Y Z