Song name
# A B C D E F G H I J K L M N O P Q R S T U V W X Y Z

Misc Unsigned Bands - Half Awake - My Friend tab

MY FRIEND
INTRO
|---------------------------------|
|---------------------------------|
|-------------2-----------------2-|
|-2-x-x-5-x-x-2-----2-x-x-5-x-x-2-|
|-2-x-x-5-x-x-0-----2-x-x-5-x-x-0-|
|-0-x-x-3-x-x-------0-x-x-3-x-x---|

VERSE
|----------------------------------------------------------|
|----------------------------------------------------------|
|----------------------------------------------------------| x 2
|-5-7-9-10-5-5-5-5-7-3--3-3-3-3-3-3--2-3-2-5-3-5-7-5-7-9sd-|
|-5-7-9-10-5-5-5-5-7-3--3-3-3-3-3-3--2-3-2-5-3-5-7-5-7-9sd-|
|-5-7-9-10-5-5-5-5-7-3--3-3-3-3-3-3--2-3-2-5-3-5-7-5-7-9sd-|

|-------------------------------|
|-------------------------------|
|-------------------------------| x 4
|-5-7-9-10sd-5-5-5-5-7-3--3-3-3-|
|-5-7-9-10sd-5-5-5-5-7-3--3-3-3-|
|-5-7-9-10sd-5-5-5-5-7-3--3-3-3-|

|--------------------------------------------|
|--------------------------------------------|
|-----------------------------------------2--|
|-3-7x-3--3-7x-3--3-7-5-3-5-3-2-----5-----2v-|
|-3-7x-3--3-7x-3--3-7-5-3-5-3-2-x-x-5-x-x-0v-|
|-3-7x-3--3-7x-3--3-7-5-3-5-3-0-x-x-3-x-x----|

PRE-CHORUS
|-----------------------------|
|-----------------------------|
|-----------------6-6-x-4-4-3-| x 2
|-----------------x-x-x-x-x-x-|
|-2-2-x-3-3-x-5-5-7-7-x-5-5-4-|
|-0-0-x-3-3-x-5-5-5-5-x-3-3-2-|

|---------------------------------------------------|
|---------------------------------------------------|
|-------------------------10-10-10-x-x-x-10-10-x-10-|
|-------------------------x--x--x--x-x-x-x--x--x--x-|
|-2-2-x-3-3-x-5-5-x-7-7-x-11-11-11-x-x-x-11-11-x-11-|
|-0-0-x-3-3-x-5-5-x-7-7-x-9--9--9--x-x-x-9--9--x-9--|

CHORUS
|-------------|
|-------------|
|-8-x-6-x-4-x-| x 4
|-x-x-x-x-x-x-|
|-9-x-7-x-5-x-|
|-7-x-5-x-3-x-|

|----------------------------------------|
|----------------------------------------|
|-3-3-3-333-3-4-4-4-444-4-3-3-3-333-3-3x-|
|-x-x-x-xxx-x-x-x-x-xxx-x-x-x-x-xxx-x-xx-|
|-4-4-4-444-4-5-5-5-555-5-4-4-4-444-4-5x-|
|-2-2-2-222-2-3-3-3-333-3-2-2-2-222-2-3x-|

|---------------|
|---------------|
|-------------2-|
|-2-x-x-5-x-x-2-|
|-2-x-x-5-x-x-0-|
|-0-x-x-3-x-x---|

VERSE
|----------------------------------------------------------|
|----------------------------------------------------------|
|----------------------------------------------------------| x 2
|-5-7-9-10-5-5-5-5-7-3--3-3-3-3-3-3--2-3-2-5-3-5-7-5-7-9sd-|
|-5-7-9-10-5-5-5-5-7-3--3-3-3-3-3-3--2-3-2-5-3-5-7-5-7-9sd-|
|-5-7-9-10-5-5-5-5-7-3--3-3-3-3-3-3--2-3-2-5-3-5-7-5-7-9sd-|

|-------------------------------|
|-------------------------------|
|-------------------------------| x 4
|-5-7-9-10sd-5-5-5-5-7-3--3-3-3-|
|-5-7-9-10sd-5-5-5-5-7-3--3-3-3-|
|-5-7-9-10sd-5-5-5-5-7-3--3-3-3-|

|--------------------------------------------|
|--------------------------------------------|
|-----------------------------------------2--|
|-3-7x-3--3-7x-3--3-7-5-3-5-3-2-----5-----2v-|
|-3-7x-3--3-7x-3--3-7-5-3-5-3-2-x-x-5-x-x-0v-|
|-3-7x-3--3-7x-3--3-7-5-3-5-3-0-x-x-3-x-x----|

PRE-CHORUS
|-----------------------------|
|-----------------------------|
|-----------------6-6-x-4-4-3-| x 2
|-----------------x-x-x-x-x-x-|
|-2-2-x-3-3-x-5-5-7-7-x-5-5-4-|
|-0-0-x-3-3-x-5-5-5-5-x-3-3-2-|

|---------------------------------------------------|
|---------------------------------------------------|
|-------------------------10-10-10-x-x-x-10-10-x-10-|
|-------------------------x--x--x--x-x-x-x--x--x--x-|
|-2-2-x-3-3-x-5-5-x-7-7-x-11-11-11-x-x-x-11-11-x-11-|
|-0-0-x-3-3-x-5-5-x-7-7-x-9--9--9--x-x-x-9--9--x-9--|

CHORUS
|-------------|
|-------------|
|-8-x-6-x-4-x-| x 4
|-x-x-x-x-x-x-|
|-9-x-7-x-5-x-|
|-7-x-5-x-3-x-|

|----------------------------------------|
|----------------------------------------|
|-3-3-3-333-3-4-4-4-444-4-3-3-3-333-3-3x-|
|-x-x-x-xxx-x-x-x-x-xxx-x-x-x-x-xxx-x-xx-|
|-4-4-4-444-4-5-5-5-555-5-4-4-4-444-4-5x-|
|-2-2-2-222-2-3-3-3-333-3-2-2-2-222-2-3x-|

|---------------|
|---------------|
|-------------2-|
|-2-x-x-5-x-x-2-|
|-2-x-x-5-x-x-0-|
|-0-x-x-3-x-x---|

SOLO
|--------------------------10-12/15-15-15-12-13-12h13p12-15-12-15/19-19~|
|--------------------10-12----------------------------------------------|
|-7b-7-10-9~9-10-12~----------------------------------------------------|
|-----------------------------------------------------------------------|
|-----------------------------------------------------------------------|
|-----------------------------------------------------------------------|

|-19-19-19-19p18p17----17-19p18p17----17-19p18p17-19-19-17-19-19/21b-21b-|
|-------------------19-------------19------------------------------------|
|------------------------------------------------------------------------|
|------------------------------------------------------------------------|
|------------------------------------------------------------------------|
|------------------------------------------------------------------------|

|-21-19-17----17------------------------------------|
|----------19----19-17-15-17-15h17p15---------------|
|-------------------------------------17-15-12bdrsd-|
|---------------------------------------------------|
|---------------------------------------------------|
|---------------------------------------------------|

BRIDGE
|---------------------------------|
|---------------------------------|
|-5-5-5-5-4-4-4-4-3-3-3-3-2-2-2-2-| x 4 (crescendo)
|-5-5-5-5-4-4-4-4-3-3-3-3-2-2-2-2-|
|-3-3-3-3-2-2-2-2-1-1-1-1-0-0-0-0-|
|---------------------------------|

|---------------------------------|
|---------------------------------|
|---------------------------------| x 4
|-5-5-5-5-4-4-4-4-3-3-3-3-2-2-2-2-|
|-5-5-5-5-4-4-4-4-3-3-3-3-2-2-2-2-|
|-3-3-3-3-2-2-2-2-1-1-1-1-0-0-0-0-|

CHORUS
|-------------|
|-------------|
|-8-x-6-x-4-x-| x 4
|-x-x-x-x-x-x-|
|-9-x-7-x-5-x-|
|-7-x-5-x-3-x-|

|----------------------------------------|
|----------------------------------------|
|-3-3-3-333-3-4-4-4-444-4-3-3-3-333-3-3x-|
|-x-x-x-xxx-x-x-x-x-xxx-x-x-x-x-xxx-x-xx-|
|-4-4-4-444-4-5-5-5-555-5-4-4-4-444-4-5x-|
|-2-2-2-222-2-3-3-3-333-3-2-2-2-222-2-3x-|

|--------------------------------|
|--------------------------------|
|-------------2v-----2-x---------|
|-2-x-x-5-x-x-2v-----2-x-5-x-4-2-|
|-2-x-x-5-x-x-0v-----0-x-5-x-4-2-|
|-0-x-x-3-x-x------------3-x-2-0-|


Tap to rate this tab
 
# A B C D E F G H I J K L M N O P Q R S T U V W X Y Z