Song name
# A B C D E F G H I J K L M N O P Q R S T U V W X Y Z

Misc Unsigned Bands - Nhia - Powaa tab

Hey guys, heres another song i made up when i got bored. I called it
the powaa song because its an upbeat tempo song. Have fun.
-NnTforever-
contact: hottguy559@hotmail.com
 
|------------------------------------------------------------------|
|------------------------------------------------------------------|
|-----6-------6-------4-------4-------2-------2-------4-------4----|
|---6---6---6---6---4---4---4---4---2---2---2---2---4---4---4---4--|
|-4-------4-------2-------2-------0-------0-------2-------2--------|
|------------------------------------------------------------------|

|------------------------------------------------------------------|
|------------------------------------------------------------------|
|------------------------------------------------------------------|
|-----4-------4-------6-------6-------7-------7-------9-------9----|
|---4---4---4---4---6---6---6---6---7---7---7---7---9---9---9---9--|
|-2-------2-------4-------4-------5-------5-------7-------7--------|

|----------------------------------------------------------------|
|-0-------0-------0-------0-------0-------0-------0-------0------|
|-6-------6-------4-------4-------2-------2-------4-------4------|
|-6---6---6---6---4---4---4---4---2---2---2---2---4---4---4---4--|
|-4-------4-------2-------2-------0-------0-------2-------2------|
|----------------------------------------------------------------|

|----------------------------------------------------------------|
|-0-------0-------0-------0-------0-------0-------0-------0------|
|----------------------------------------------------------------|
|-4-------4-------6-------6-------7-------7-------9-------9------|
|-4---4---4---4---6---6---6---6---7---7---7---7---9---9---9---9--|
|-2-------2-------4-------4-------5-------5-------7-------7------|

|-0-0-0-0-0-0-0-0-0-0-0-0-0-0-0-0-0-0-0-0-0-0-0-0-0-|
|-0-0---0---0-0-0---0---0-0-0---0-0---0-0---0-0-----|
|-6-----6-----4-----4-----2-----2-----4-----4-------|
|-6-----6-----4-----4-----2-----2-----4-----4-------|
|-4-----4-----2-----2-----0-----0-----2-----2-------|
|---------------------------------------------------|

|-0-0-0-0-0-0-0-0-0-0-0-0-0-0-0-0-0-0-0-0-0-0-0-0-0-|
|-0-0---0---0-0-0---0---0-0-0---0-0---0-0---0-0-----|
|---------------------------------------------------|
|-4-----4-----6-----6-----7-----7-----9-----9-------|
|-4-----4-----6-----6-----7-----7-----9-----9-------|
|-2-----2-----4-----4-----5-----5-----7-----7-------|

|-0-0-0-0-0-0-0-0-0-0-0-0-0-0-0-0-0-0-0-0-0-0-0-0-0-|
|-0-0---0-0-0-0-0---0-0-0-0-0---0-0-0-0-0---0-0-0---|
|-6-6---6-----4-4---4-----2-2---2-----4-4---4-------|
|-6-----6-----4-----4-----2-----2-----4-----4-------|
|-4-----4-----2-----2-----0-----0-----2-----2-------|
|---------------------------------------------------|

|-0-0-0-0-0-0-0-0-0-0-0-0-0-0-0-0-0-0-0-0-0-0-0-0-0-0--|
|-0-0---0---0-0-0---0---0-0-0---0-0---0-0-0-0-0-0---0--|
|------------------------------------------------------|
|-4-----4-----6-----6-----7-----7-----7---9---9-----9--|
|-4-----4-----6-----6-----7-----7-----7---9---9-----9--|
|-2-----2-----4-----4-----5-----5-----5---7---7-----7--|

|-0-4-0-0-0-4-0-2-0-0-0-2-0-0-0-0-0-0-0-4-0-0-4-0-0-|
|-0-2---0---2-0-0---0---0-0-0---0-0---0-2---0-2-----|
|-6-----6-----4-----4-----2-----2-----4-----4-------|
|-6-----6-----4-----4-----2-----2-----4-----4-------|
|-4-----4-----2-----2-----0-----0-----2-----2-------|
|---------------------------------------------------|

|-0-2-0-0-0-2-0-4-0-0-0-4-0-5-0-0-5-0-0-7-0-0-7-0-0-|
|-0-0---0---0-0-2---0---2-0-2---0-2---0-5---0-5-----|
|---------------------------------------------------|
|-4-----4-----6-----6-----7-----7-----9-----9-------|
|-4-----4-----6-----6-----7-----7-----9-----9-------|
|-2-----2-----4-----4-----5-----5-----7-----7-------|

|-0-4-0-0-0-4-0-2-0-0-0-2-0-0-0-0-0-0-0-4-0-0-4-0-0-|
|-0-2---0-0-2-0-0---0-0-0-0-0---0-0-0-0-2---0-2-0---|
|-6-6---6-----4-4---4-----2-2---2-----4-4---4-------|
|-6-----6-----4-----4-----2-----2-----4-----4-------|
|-4-----4-----2-----2-----0-----0-----2-----2-------|
|---------------------------------------------------|

|-0-0-0-0-0-0-0-0-0-0-0-0-0-0-0-0-0-0-0-0-0-0-0-0-0-0--|
|-0-0---0---0-0-0---0---0-0-0---0-0---0-0-0-0-0-0---0--|
|---2-------2---4-------4---4-----4-----4--------------|
|-4-----4-----6-----6-----7-----7-----7---9---9-----9--|
|-4-----4-----6-----6-----7-----7-----7---9---9-----9--|
|-2-----2-----4-----4-----5-----5-----5---7---7-----7--|
Tap to rate this tab
# A B C D E F G H I J K L M N O P Q R S T U V W X Y Z