Song name
# A B C D E F G H I J K L M N O P Q R S T U V W X Y Z

Misc Unsigned Bands - Stayover - What I Deserved tab

Intro 
E | -0---0---0---0-0- |
B | -0---5---0---5-0- |
G | -9---6---8---6-8- |      x2
D | -9---6---9---6-9- |
A | -7---0---9---0-9- |
E | -----5---7---5-7- |

Riff 
E | --------------------------------------------- |
B | --------------------------------------------- |
G | -9-999999-------------8-888888--------------- |  x2
D | -9-999999-6h7-6h7-6h7-9-999999-6h7-6h7-6h7--- |
A | -7-777777-0---0---0---9-999999-0---0---0----- |
E | ----------------------7-777777--------------- |
        PM...                PM...
Verse 
(only let first chord ring, palm mute rest)
E | ----------------------- |
E | ----------------------- |
E | -9-9999---------------- |
D | -9-9999-7777-9999-7777- |
A | -7-7777-7777-9999-7777- |
E | --------5555-7777-5555- |

Pre-Chorus
E | --------------------- |
B | --------------------- |
G | -6666---------------- | x3
D | -6666-6666-7777-9999- |
A | -4444-6666-7777-9999- |
E | ------4444-5555-7777- |

Chorus
E | ---------------------- |
B | ---------------------- |
G | -9999----------------- |
D | -9999-7777-9999-77-99- |
A | -7777-7777-9999-77-99- |
E | ------5555-7777-55-77- |

Solo
E | ---------------------------4------------------------------------- |
B | ----------------4-----------4-4------------------------------9p7- |
G | -------4-------4-4--------4--4-4-------------6-7s9-7-6-7--------- |
D | ------------------4-------------4-------4h6p4-------------------- |
A | -4h6h7---4h6h7------4h6h7----------4h6h7------------------------- |
E | ----------------------------------------------------------------- |

That's it!  You can hear stayover's music at www.purevolume.com/stayover Peace out!

Oh and this is my first tab!
Tap to rate this tab
# A B C D E F G H I J K L M N O P Q R S T U V W X Y Z