Song name
# A B C D E F G H I J K L M N O P Q R S T U V W X Y Z

Misc Unsigned Bands - Falafel - Extraterrestial Highway tab

|--------------------------------------------------------------|
|-0-0-4-5--5--5--5-5--5-5--------------------------------------|
|--------0--0--5-----4---4-------------------------------------|
|--------------------------------------------------------------|
|--------------------------------------------------------------|
|--------------------------------------------------------------|

Above riff is main riff throughout the verses and the intro.

Chorus:
|--------------------------------------------------------------|
|-5-5-5-5-5-5-5-5-5-5-5-5-5-5-5-5------------------------------|
|-7-7-7-7-7-7-7-7-5-5-5-5-5-5-5-5------------------------------|
|-7-7-7-7-7-7-7-7-7-7-7-7-7-7-7-7------------------------------|
|--------------------------------------------------------------|
|--------------------------------------------------------------|

Solo riff 1:
|--------------------------------------------------------------|
|--------------------------------------------------------------|
|-0--0--0----0--0-----0-0--0--0--------------------------------|
|--------------------------------------------------------------|
|--10-10-10-12-12-10-8-8-8-6-6-6-------------------------------|
|--------------------------------------------------------------|

Play above riff 2x then go back to main riff at the top, then to chorus
then to the last solo below.

Solo riff 2:
|--------------------------------------------------------------|
|--------------------------------------------------------------|
|-0-0-0-0-0-0-0-0-0-0--0--0--0-0-0-0-0-0-0---------------------|
|--------------------------------------------------------------|
|--5-7-5-7-3-5-8-7-5-12-14-12-8-7-5-7-5-7-3--------------------|
|--------------------------------------------------------------|

Tap to rate this tab
 
# A B C D E F G H I J K L M N O P Q R S T U V W X Y Z